Oops, an error
Loading. Please wait.

Do Seu Lado Bass Tab

version 1
version 1

Whole song

Interactive

869 views 1 this week
no commentswrite comment
1 2 3 4 5
please rate
add to favorites
launch autoscroll
font size
0
reset
guitar tuner
Autoscroll
slow
fast
+/-
esc
set tempo
stop
Help us to improve Ultimate-Guitar.com Take our survey!
×
Author
Difficulty
Tuning
intermediate
D A D G B E
--------------------------------------------------------------------------
                    DO SEU LADO - Jota Quest
--------------------------------------------------------------------------
Tabbed by: polaco_mp3z
E-mail: polacomp3z@gmail.com

Tuning: Dropped D (DADG)


     E  E  E  E  E  E  E  E       E  E  E  E  E  E  E  E   
G||--------------------------||---------------------------|
D||--------------------------||*--------------------------|
A||--5-----5-----3--5-----3--||*--5-----5-----3--5-----5--|
D||--------------------------||---------------------------|


  E  E  E  E  E  E  E  E   3x  E  E  E  E  E  E  E  E   
---------------------------||--------------------------|
--------------------------*||--------------------------|
--------------3--5-----3--*||--5-----5-----3--5-----5--|
--0-----0------------------||--------------------------|


  E  E  E  E  E  E  E  E     E  E  E  E  E  E  E  E   
--------------------------|--------------------------|
--------------------------|-----------------5-----6--|
--------------3--5-----5--|--------------------------|
--0-----0-----------------|--0-----0-----5-----6-----|


  E  E  E  E  E  E  E  E     E  E  E  E  E  E  E  E   
--------------------------|--------------------------|
--------------------------|--------------------------|
--------------------------|--------------------3--5--|
--7-----7-----5--7-----5--|--7-----7-----5--7--------|


  E  E  E  E  E  E  E  E     E  E  E  E  E  E  E  E   
--------------------------|--------------------------|
--------------------------|-----------------7-----5--|
--3-----3-----2--3-----2--|--3-----3-----------------|
--------------------------|--------------7-----5-----|


  E  E  E  E  E  E  E  E     E  E  E  E  E  E  E  E   
--------------------------|--------------------------|
--------------------------|-----------------7-----5--|
--------------3--5-----5--|--------------------------|
--0-----0-----------------|--0-----0-----7-----5-----|


  E  E  E  E  E  E  E  E     E  E  E  E  E  E  E  E   
--------------------------|--------------------------|
--------------------------|-----------------5-----6--|
--------------3--5-----5--|--------------------------|
--0-----0-----------------|--0-----0-----5-----6-----|


  E  E  E  E  E  E  E  E     E  E  E  E  E  E  E  E   
--------------------------|--------------------------|
--------------------------|--------------------------|
--------------------------|--------------------3--5--|
--7-----7-----5--7-----5--|--7-----7-----5--7--------|


  E  E  E  E  E  E  E  E     E  E  E  E  E   E  E  E   
--------------------------|---------------------------|
--------------------------|---------------------------|
--3-----3-----2--3-----3--|--2-----2--0--2s--3--3--5--|
--------------------------|---------------------------|


  E  E  E  E  E  E  E  E     E  E  E  E  E  E  E  E   
--------------------------|--------------------------|
--------------------------|--------------------------|
--------------3--5-----5--|--------------3--5-----5--|
--0-----0-----------------|--0-----0-----------------|


  E  E  E  E  E  E  E  E     E  E  E  E  E  E  E  E   
--------------------------|--------------------------|
--------------------------|-----------------5-----6--|
--------------3--5-----5--|--------------------------|
--0-----0-----------------|--0-----0-----5-----6-----|


  E  E  E  E  E  E  E  E     E  E  E  E  E  E  E  E   
--------------------------|--------------------------|
--------------------------|--------------------------|
--------------------------|--------------------3--5--|
--7-----7-----5--7-----5--|--7-----7-----5--7--------|


  E  E  E  E  E  E  E  E     E  E  E  E  E  E  E  E   
--------------------------|--------------------------|
--------------------------|-----------------7-----5--|
--3-----3-----2--3-----2--|--3-----3-----------------|
--------------------------|--------------7-----5-----|


  E  E  E  E  E  E  E  E     E  E  E  E  E  E  E  E   
--------------------------|--------------------------|
--------------------------|--------------------------|
--------------3--5-----5--|--------------3--5-----5--|
--0-----0-----------------|--0-----0-----------------|


  E  E  E  E  E  E  E  E     E  E  E  E  E  E  E  E   
--------------------------|--------------------------|
--------------------------|-----------------5-----6--|
--------------3--5-----5--|--------------------------|
--0-----0-----------------|--0-----0-----5-----6-----|


  E  E  E  E  E  E  E  E     E  E  E  E  E  E  E  E   
--------------------------|--------------------------|
--------------------------|--------------------------|
--------------------------|--------------------3--5--|
--7-----7-----5--7-----5--|--7-----7-----5--7--------|


  E  E  E  E  E  E  E  E     E  E  E  E  E   E  E  E   
--------------------------|---------------------------|
--------------------------|---------------------------|
--3-----3-----2--3-----3--|--2-----2--0--2s--3--3--5--|
--------------------------|---------------------------|


  E  E  E  E  E  E  E  E     E  E  E  E  E  E  E  E   
--------------------------|--------------------------|
--------------------------|--------------------------|
--------------3--5-----5--|--------------3--5-----5--|
--0-----0-----------------|--0-----0-----------------|


    E  E  E  E  E  E  E  E     E  E  E  E  E  E  E  E   
|---------------------------|--------------------------|
|*--------------------------|--------------------------|
|*--3-----3-----3--3-----2--|--------------------3--5--|
|---------------------------|--5-----5-----5--7--------|


  E  E  E  E  E  E  E  E     E  E  E  E  E  E  E  E   3x  W                 
--------------------------|---------------------------||-------------------|
--------------------------|--------------------------*||-------------------|
--------------3--5-----5--|--------------3--5-----5--*||-------------------|
--0-----0-----------------|--0-----0------------------||--2----------------|


  W                   H        Q    Q         H         H          
-------------------|----------------------|-----------------------|
-------------------|----------------------|-----------------------|
-------------------|----------------5s----|--10~--------LS--------|
--L----------------|--5--------L----------|-----------------------|


  E  E  E  E  E  E  E  E     E  E  Q    H           E  E  E  E  E  E  E  E   
--------------------------|----------------------|--------------------------|
--------------------------|----------------------|--------------------------|
--5-----5-----3--5-----5--|----------------------|--------------3--5-----5--|
--------------------------|--0-------------------|--0-----0-----------------|


  E  E  E  E  E  E  E  E     Q    Q    E  E  E  E   
--------------------------|------------------------|
--------------------------|------------------5--7--|
--------------3--5-----5--|------------5--7--------|
--0-----0-----------------|--7----9----------------|


  E    E  E  E  E  E  E  E     E  E  E  E  E  E  E  E   
----------------------------|--------------------------|
--LS--10--7--5--------------|--------------------------|
----------------7--5--------|--3-----3-----2--3-----2--|
----------------------9--7--|--------------------------|


  E  E  E  E  E  E  E  E     E  E  E  E  E  E  E  E   
--------------------------|--------------------------|
-----------------7-----5--|--------------------------|
--3-----3-----------------|--------------3--5-----5--|
--------------7-----5-----|--0-----0-----------------|


  E  E  E  E  E  E  E  E     E  E  E  E  E  E  E  E   
--------------------------|--------------------------|
-----------------7-----5--|--------------------------|
--------------------------|--------------3--5-----5--|
--0-----0-----7-----5-----|--0-----0-----------------|


  E  E  E  E  E  E  E  E     Q    Q    E  E  E  E   
--------------------------|------------------------|
--------------------------|------------------5--7--|
--------------3--5-----5--|------------5--7--------|
--0-----0-----------------|--7----9----------------|


  E    E  E  E  E  E  E  E     E  E  E  E  E  E  E  E   
----------------------------|--------------------------|
--LS--10--7--5--------------|--------------------------|
----------------7--5--------|--3-----3-----2--3-----3--|
----------------------9--7--|--------------------------|


  E  E  E  E  E   E  E  E     E  E  E  E  E  E  E  E   
---------------------------|--------------------------|
---------------------------|--------------------------|
--2-----2--0--2s--3--3--5--|--------------3--5-----5--|
---------------------------|--0-----0-----------------|


  E  E  E  E  E  E  E  E     E  E  E  E  E  E  E  E   
--------------------------|--------------------------|
--------------------------|--------------------------|
--------------3--5-----5--|--------------3--5-----5--|
--0-----0-----------------|--0-----0-----------------|


  E  E  E  E  E  E  E  E     E  E  E  E  E  E  E  E     E  E  Q    H         
--------------------------|--------------------------|----------------------|
--------------------------|--------------------------|----------------------|
--------------3--5-----5--|--------------3--5-----5--|----------------------|
--0-----0-----------------|--0-----0-----------------|--0-------------------|


  E  E  E  E  E  E  E  E     E  E  E  E  E  E  E  E   
--------------------------|--------------------------|
--------------------------|-----------------5-----6--|
--------------3--5-----5--|--------------------------|
--0-----0-----------------|--0-----0-----5-----6-----|


  E  E  E  E  E  E  E  E     E  E  E  E  E  E  E  E   
--------------------------|--------------------------|
--------------------------|--------------------------|
--------------------------|--------------------3--5--|
--7-----7-----5--7-----5--|--7-----7-----5--7--------|


  E  E  E  E  E  E  E  E     E  E  E  E  E  E  E  E   
--------------------------|--------------------------|
--------------------------|-----------------7-----5--|
--3-----3-----2--3-----2--|--3-----3-----------------|
--------------------------|--------------7-----5-----|


  E  E  E  E  E  E  E  E     E  E  E  E  E  E  E  E   
--------------------------|--------------------------|
--------------------------|--------------------------|
--------------3--5-----5--|--------------3--5-----5--|
--0-----0-----------------|--0-----0-----------------|


  E  E  E  E  E  E  E  E     E  E  E  E  E  E  E  E   
--------------------------|--------------------------|
--------------------------|-----------------5-----6--|
--------------3--5-----5--|--------------------------|
--0-----0-----------------|--0-----0-----5-----6-----|


  E  E  E  E  E  E  E  E     E  E  E  E  E  E  E  E   
--------------------------|--------------------------|
--------------------------|--------------------------|
--------------------------|--------------------3--5--|
--7-----7-----5--7-----5--|--7-----7-----5--7--------|


  E  E  E  E  E  E  E  E     E  E  E  E  E   E  E  E   
--------------------------|---------------------------|
--------------------------|---------------------------|
--3-----3-----2--3-----3--|--2-----2--0--2s--3--3--5--|
--------------------------|---------------------------|


  E  E  E  E  E  E  E  E     E  E  E  E  E  E  E  E   
--------------------------|--------------------------|
--------------------------|--------------------------|
--------------3--5-----5--|--------------3--5-----5--|
--0-----0-----------------|--0-----0-----------------|


    E  E  E  E  E  E  E  E     E  E  E  E  E  E  E  E   
|---------------------------|--------------------------|
|*--------------------------|--------------------------|
|*--3-----3-----3--3-----2--|--------------------3--5--|
|---------------------------|--5-----5-----5--7--------|


  E  E  E  E  E  E  E  E     E  E  E  E  E  E  E  E   3x  W                 
--------------------------|---------------------------||-------------------|
--------------------------|--------------------------*||-------------------|
--------------3--5-----5--|--------------3--5-----5--*||-------------------|
--0-----0-----------------|--0-----0------------------||--2----------------|


  W                   H        Q    Q         H         H          
-------------------|----------------------|-----------------------|
-------------------|----------------------|-----------------------|
-------------------|----------------5s----|--10~--------LS--------|
--L----------------|--5--------L----------|-----------------------|


  E  E  E  E  E  E  E  E     E  E  Q    H           E  E  E  E  E  E  E  E   
--------------------------|----------------------|--------------------------|
--------------------------|----------------------|--------------------------|
--5-----5-----3--5-----5--|----------------------|--------------3--5-----5--|
--------------------------|--0-------------------|--0-----0-----------------|


  E  E  E  E  E  E  E  E     Q    Q    E  E  E  E   
--------------------------|------------------------|
--------------------------|------------------5--7--|
--------------3--5-----5--|------------5--7--------|
--0-----0-----------------|--7----9----------------|


  E    E  E  E  E  E  E  E     E  E  E  E  E  E  E  E   
----------------------------|--------------------------|
--LS--10--7--5--------------|--------------------------|
----------------7--5--------|--3-----3-----2--3-----2--|
----------------------9--7--|--------------------------|


  E  E  E  E  E  E  E  E     E  E  E  E  E  E  E  E   
--------------------------|--------------------------|
-----------------7-----5--|--------------------------|
--3-----3-----------------|--------------3--5-----5--|
--------------7-----5-----|--0-----0-----------------|


  E  E  E  E  E  E  E  E     E  E  E  E  E  E  E  E   
--------------------------|--------------------------|
-----------------7-----5--|--------------------------|
--------------------------|--------------3--5-----5--|
--0-----0-----7-----5-----|--0-----0-----------------|


  E  E  E  E  E  E  E  E     Q    Q    E  E  E  E   
--------------------------|------------------------|
--------------------------|------------------5--7--|
--------------3--5-----5--|------------5--7--------|
--0-----0-----------------|--7----9----------------|


  E    E  E  E  E  E  E  E     E  E  E  E  E  E  E  E   
----------------------------|--------------------------|
--LS--10--7--5--------------|--------------------------|
----------------7--5--------|--3-----3-----2--3-----3--|
----------------------9--7--|--------------------------|


  E  E  E  E  E   E  E  E     E  E  E  E  E  E  E  E   
---------------------------|--------------------------|
---------------------------|--------------------------|
--2-----2--0--2s--3--3--5--|--------------3--5-----5--|
---------------------------|--0-----0-----------------|


  E  E  E  E  E  E  E  E     E  E  E  E  E  E  E  E   
--------------------------|--------------------------|
--------------------------|--------------------------|
--------------3--5-----5--|--------------3--5-----5--|
--0-----0-----------------|--0-----0-----------------|


  E  E  E  E  E  E  E  E     E  E  E  E  E  E  E  E   
--------------------------|--------------------------|
-----------------5-----6--|--------------------------|
--------------------------|--------------------------|
--0-----0-----5-----6-----|--7-----7-----5--7-----5--|


  E  E  E  E  E  E  E  E     E  E  E  E  E  E  E  E   
--------------------------|--------------------------|
--------------------------|--------------------------|
--------------------3--5--|--3-----3-----2--3-----2--|
--7-----7-----5--7--------|--------------------------|


  E  E  E  E  E  E  E  E     E  E  E  E  E  E  E  E   
--------------------------|--------------------------|
-----------------7-----5--|--------------------------|
--3-----3-----------------|--------------3--5-----5--|
--------------7-----5-----|--0-----0-----------------|


  E  E  E  E  E  E  E  E     E  E  E  E  E  E  E  E   
--------------------------|--------------------------|
-----------------7-----5--|--------------------------|
--------------------------|--------------3--5-----5--|
--0-----0-----7-----5-----|--0-----0-----------------|


  E  E  E  E  E  E  E  E     E  E  E  E  E  E  E  E   
--------------------------|--------------------------|
-----------------5-----6--|--------------------------|
--------------------------|--------------------------|
--0-----0-----5-----6-----|--7-----7-----5--7-----5--|


  E  E  E  E  E  E  E  E     E  E  E  E  E  E  E  E   
--------------------------|--------------------------|
--------------------------|--------------------------|
--------------------3--5--|--3-----3-----2--3-----3--|
--7-----7-----5--7--------|--------------------------|


  E  E  E  E  E   E  E  E     E  E  E  E  E  E  E  E   
---------------------------|--------------------------|
---------------------------|--------------------------|
--2-----2--0--2s--3--3--5--|--------------3--5-----5--|
---------------------------|--0-----0-----------------|


  E  E  E  E  E  E  E  E     E  E  E  E  E  E  E  E   
--------------------------|--------------------------|
--------------------------|--------------------------|
--------------3--5-----5--|--------------3--5-----5--|
--0-----0-----------------|--0-----0-----------------|


  E  E  E  E  E  E  E  E     Q    Q    E  E  E  E   
--------------------------|------------------------|
-----------------5-----6--|------------------5--7--|
--------------------------|------------5--7--------|
--0-----0-----5-----6-----|--7----9----------------|


  E    E  E  E  E  E  E  E     E  E  E  E  E  E  E  E   
----------------------------|--------------------------|
--LS--10--7--5--------------|--------------------------|
----------------7--5--------|--3-----3-----2--3-----2--|
----------------------9--7--|--------------------------|


  E  E  E  E  E  E  E  E     E  E  E  E  E  E  E  E   
--------------------------|--------------------------|
-----------------7-----5--|--------------------------|
--3-----3-----------------|--------------3--5-----5--|
--------------7-----5-----|--0-----0-----------------|


  E  E  E  E  E  E  E  E     E  E  E  E  E  E  E  E   
--------------------------|--------------------------|
-----------------7-----5--|--------------------------|
--------------------------|--------------3--5-----5--|
--0-----0-----7-----5-----|--0-----0-----------------|


  E  E  E  E  E  E  E  E     Q    Q    E  E  E  E   
--------------------------|------------------------|
--------------------------|------------------5--7--|
--------------3--5-----5--|------------5--7--------|
--0-----0-----------------|--7----9----------------|


  E    E  E  E  E  E  E  E     E  E  E  E  E  E  E  E   
----------------------------|--------------------------|
--LS--10--7--5--------------|--------------------------|
----------------7--5--------|--3-----3-----2--3-----3--|
----------------------9--7--|--------------------------|


  E  E  E  E  E   E  E  E       Q    E  Q    E  Q       E  Q    E  H         
----------------------------|------------------------|----------------------|
----------------------------|------------------------|----------------------|
--2-----2--0--2s--3--3--5S--|--10----L--9----L--3----|--L-------------------|
----------------------------|------------------------|-----0----L--L--------|


  W                   W                  
-------------------|-------------------||
-------------------|-------------------||
-------------------|-------------------||
--L----------------|--L----------------||



Duration Legend
---------------
W - whole
H - half
Q - quarter
E - 8th
S - 16th
T - 32nd
X - 64th
. - note dotted
|-n-|  - n-tuplets


Tablature Legend
----------------
L - tied note
(n) - ghost note
h - hammer on
S - shift slide
s - legato slide
/ -  slide into from below or out of upwards
\ -  slide into from above or out of downwards
~ - vibrato
W - wide vibrato
Suggest correction
Give kudos to tab author, rate the tab!
1 2 3 4 5
comments
print report bad tab
guest
You may want to rate the tab now too:
select rating
Please do not post tabs as comments. Select "correction" instead!