Oops, an error
Loading. Please wait.
We have an official Any Way You Want It tab made by UG professional guitarists. Check out the tab »
×
by Journey
2,376 views 9 this week
1 commentread comment
1 2 3 4 5
2 more votes to show rating
add to favorites
×
Save as Personal and add changes to this tab that will be seen only by you. Learn more ›
×
You can save this tab as Personal to edit and correct it or add notes. All changes will be seen only by you. Learn more »
launch autoscroll
font size
0
reset
guitar tuner
backing track
0:00
0:00
edit
Autoscroll
slow
fast
+/-
esc
set tempo
stop
Author
Intro
|------------------------------------------|
|------------------------------0-2-0-------|
|-------------3-2-3-2-3-2-0--3-------3-2-0-|
|--3--0-2--0-------------------------------|

Verse
|---------------------------------------------------------|
|---------------------------------------------------------|
|-------------------------------------------3-2-3-2-3-2-0-|
|-3-3--3-3-3-3--2-2--2-2-2-2--0-0--0-0-0-0----------------|

Going into chorus
|-----------------------------------------------------------|
|--------------------------------------------0-2------------|
|----------------------------------------3-2-----3-2-0------|
|-3-3-3-3-3-3--2-2-2-2-2-2--0-0-0-0-0-0---------------------|


Chorus
|--------------------------------------------------------|
|--------------------------------------------------------|
|----------------------------------------3-2-3-2-3-2-0---|
|-3-3-3-3-3-3--2-2-2-2-2-2--0-0-0-0-0-0------------------|

|--------------------------------------------------------|
|--------------------------------------------0-2---------|
|----------------------------------------3-2-----3-2-0---|
|-3-3-3-3-3-3--2-2-2-2-2-2--0-0-0-0-0-0------------------|

"Hold on"
|-------------------------------------------------------|
|-------------------------------------------------------|
|----------------------------------------4-2-4-2--------|
|-3-3-3-3-3-3--2-2-2-2-2-2--0-0-0-0-0-0----------2-3----|


Ending chorus

|-------------------------------------------------|
|-------------------------------------------------|
|----------------------------------------333333---|
|-3-3-3-3-3-3--2-2-2-2-2-2--0-0-0-0-0-0-----------| 

            
            
Suggest correction
Creating personal tab
Creating personal tab
You can edit any tab online and save it as your Personal.

You can edit, replace or remove any tab part or add personal notes – all changes will be seen only by you.

Personal tabs can be accessed anytime from any device, even offline.
Learn more »
Give kudos to tab author, rate the tab!
1 2 3 4 5
comments
print report bad tab
1 comment total.
0 reply
dude55 202 Jul 09, 2009 06:50 PM

for the most part it looks pretty good....intro is a little sketchy, but adequate tab. mistakes can be fixed by listening to the song.

guest
You may want to rate the tab now too:
select rating
Wanna post a correction for this tab? Suggest correction