Oops, an error
Loading. Please wait.

Any Way You Want It Tab

version 2
version 2

Whole song

Interactive

Video

88,433 views 39 this week
no commentswrite comment
1 2 3 4 5
x 5
add to favorites
launch autoscroll
font size
0
reset
how to read this tab
guitar tuner
Autoscroll
slow
fast
+/-
esc
set tempo
stop
Help us to improve Ultimate-Guitar.com Take our survey!
×
Author
Gtr I (E A D G B E) - 'Neil Schon - dist electric'

[Intro]
  Q=140
 4/4
  Gtr I
                                             ~~~
  E    H    Q  E E   H    Q  E E   H    Q  E E
e|-3-||---------2-2-|-----------0-|-------------|
B|-3-||---------3-3-|-----------0-|-------------|
G|-0-||---------2-2-|-----------0-|-------------|
D|-0-||---------0-0-|-----------2-|-------------|
A|---||-------------|-----------2-|-----------3-|
E|-3-||---------2-2-|-----------0-|-------------|


  ~~~~~            ~~~~~~~~
   +E  E E E E E e E   +E  E E E E E E E
e|-------------------|-----------------3----|
B|-------------------|-----------------3----|
G|-------------------|-----------------0----|
D|-------------------|-----0-2-0-------0----|
A|-(3)-2-3-2-3-2---3-|-(3)-------3-2-0------|
E|---------------3---|-----------------3----|


[Verse]
    $
      PM------|         PM------|
    E E E E E E E E   E E E E E E E E
||------------------|-----------------|
||o-------------3-3-|-------------0-0-|
||--------------2-2-|-------------0-0-|
||----0-0-0-0-0-0-0-|---0-0-0-0-2-2-2-|
||o-----------------|-------------2-2-|
||----3-3-3-3-2-2-2-|---2-2-2-2---0-0-|


    PM------|   ~~~~~~~~
  E E E E E E e E   +E  E E E E E     E E
|-----------------|---------------------3--|
|-----------------|---------------------3--|
|-----------------|---------------------0--|
|-----------------|---------------------0--|
|---2-2-2-2-2-2-3-|-(3)-2-3-2-3-2b2.5------|
|---0-0-0-0-0-0---|-------------------3----|


    PM------|         PM------|
  E E E E E E E E   E E E E E E E E
|-----------------|-----------------|
|-------------3-3-|-------------0-0-|
|-------------2-2-|-------------0-0-|
|---0-0-0-0-0-0-0-|---0-0-0-0---2-2-|
|-----------------|-------------2-2-|
|---3-3-3-3-2-2-2-|---2-2-2-2-0-0-0-|


                   1.
    PM------|   ~~~~~~~~
  E E E E E E e E   +E  E E E E E     E E
|-----------------|---------------------3--||
|-----------------|---------------------3-o||
|-----------------|---------------------0--||
|-----------------|---------------------0--||
|---2-2-2-2-2-2-3-|-(3)-2-3-2-3-2b2.5-----o||
|---0-0-0-0-0-0---|-------------------3----||


 [Chorus]
   2.
    ~~~                                         PM
    E  E E E E E E E    +H.      E E   +H.      E E
e|-----------------3-||-(3)--------2-|-(2)--------0-|
B|-----------------3-||-(3)--------3-|-(3)--------3-|
G|-----------------0-||-(0)--------2-|-(2)--------0-|
D|-----------------0-||-(0)--------0-|-(0)--------2-|
A|-(3)-2-3-2-3-2-----||--------------|--------------|
E|---------------3---||------------2-|-(2)------0---|


              ~~~~~~~~
   +H.      E E   +E  E E E E E E E   +H.      E E
e|-(0)----------|-----------------3-|-(3)--------2-|
B|-(3)----------|-----------------3-|-(3)--------3-|
G|-(0)----------|-----------------0-|-(0)--------2-|
D|-(2)----------|-----------------0-|-(0)--------0-|
A|------------3-|-(3)-2-3-2-3-2-----|--------------|
E|--------------|---------------3---|------------2-|


         To Coda                     D.S. al Coda
            PM               ~~~~~~~~
   +H.      E E   +H.      E E   +E  E E E E E E E
e|-(2)--------0-|-(0)----------|-----------------3-||
B|-(3)--------3-|-(3)----------|-----------------3-||
G|-(2)--------0-|-(0)----------|-----------------0-||
D|-(0)--------2-|-(2)----------|-----0-2-0-------0-||
A|--------------|------------3-|-(3)-------3-2-0---||
E|-(2)------0---|--------------|-----------------3-||


                           Guitar Solo
   &
                                               |3-|
    H.        S  S  S  S     S  S  S  S  S  S  S  E  S  S  S  S  a      +E    a      +E
e|-(0)----------15-15-15-||-17p15----15-15-15-17p15-15-15-15-15-17b19==(17)r-17b19==(17)-|
B|-(0)------/15-15-15----||-------15----15-15----------15-15-15--------------------------|
G|-(0)-------------------||--------------------------------------------------------------|
D|-(2)-------------------||--------------------------------------------------------------|
A|-----------------------||--------------------------------------------------------------|
E|-----------------------||--------------------------------------------------------------|


                                                ~~
    +Q     E  E      a      +Q     a      +E    E
e|-(17)r--17-17pb19-17b19==(17)r--17b19==(17)r-17--|
B|-------------------------------------------------|
G|-------------------------------------------------|
D|-------------------------------------------------|
A|-------------------------------------------------|
E|-------------------------------------------------|


    ~~~~
                                     |-----5-----|  |-----5-----|  |----5-----|
   +Q    E  E  a      +Q.    S  S    S  S  S  S  S  S  S  S  S  S  S  S S  S  S  S  S  S  S
|-(17)--15-17-17b19==(17)r==17-15-|-17p15----15---------------------------------------------|
|---------------------------------|-------17----17p15h17p15----17p15------------------------|
|---------------------------------|-------------------------16-------16-x-12h14p12-------12-|
|---------------------------------|------------------------------------------------14-14----|
|---------------------------------|---------------------------------------------------------|
|---------------------------------|---------------------------------------------------------|


                             ~~~~~~~~
   |3-|  |3-|  |3-|
   S  E  E  S  E  S  a      +E   +Q    +S   +S   E
|--------------------------------------------------|
|-------15----------15b17==(15)-(15)--(15)r(15)-13-|
|-14s16----16p14h16--------------------------------|
|--------------------------------------------------|
|--------------------------------------------------|
|--------------------------------------------------|


                                                                                ~~~
                                                      |3-|      |-3-|     |-3-|
   E  E  E      +S   S  E  E  E  E         +S   S  E  S  E S S  S S S S S S S S E
|---------------------------------------|-----------------------------------------|
|-12-13-13pb15r(13)-12-13-12-10-12pb13==|=(12)r12-10-12p10S7-8-10-8---------------|
|---------------------------------------|---------------------------9-7-9-7-------|
|---------------------------------------|-----------------------------------9s7-5-|
|---------------------------------------|-----------------------------------------|
|---------------------------------------|-----------------------------------------|


  ~~~~~                ~~~~~~~~
                   |3|
   +E  E a E E E E S E E   +H       Q   E E
e|-----------------------|----------------3--||
B|-----------------------|----------------3--||
G|-----------7-9-7-------|----------------0--||
D|-(5)-5-7s9-------9s7-5-|-(5)------------0--||
A|-----------------------|-------------------||
E|-----------------------|--------/15\--3----||


[Bridge]
                                                         1.
      PM----|           PM----|
    E E E E E e E E   E E E E E E E E   E E E E E E E E   E E E E E E E E
||------------------|-------------0-0-|---------------3-|---3---5---3-5-3---||
||o-------------3-3-|-------------0-0-|---------------3-|---3---3---3-3-3--o||
||--------------2-2-|-------------0-0-|---------------0-|---0---0---0-0-0---||
||--------------0-0-|---0-0-0-0---2-2-|-----------------|-----------0-0-0---||
||o---5-5-5-5-5-----|-------------2-2-|---2-2-2-2-2-2-3-|---3---3----------o||
||----3-3-3-3-2-2-2-|---2-2-2-2-0-0-0-|---0-0-0-0-0-0---|-----------3-3-3---||


                                     Out-Chorus
   2.
                               ~~~~~~~~~~~~     ~
   E E E E E E a    +E   a    +E      +Q    E E Q  E E
e|---3---5------------------------||-------------------|
B|---3---3------------------------||o------------------|
G|---0---0---0-5b7==(5)r-5b7==(5)-||--(5)r--5-4-2--0-2-|
D|--------------------------------||-------------------|
A|---3---3------------------------||o------------------|
E|--------------------------------||-------------------|


        ~~~~~~    ~~~~~~~~~~
                                        |-3--|
  E E E E +E  E E E   +E  Q  a E +E  E +S  S S E
|-------------------|-----------------------------|
|-------------------|-----------------------------|
|-4-5-4-2-(2)-0-2-4-|-(4)-2--2h4-(4)-2-(2)h4p2p0--|
|-------------------|-----------------------------|
|-------------------|-----------------------------|
|-------------------|-----------------------------|


   1.,2.,3.               4.
    ~~~                    ~~~
   +H.      E a   +E       H     T S T E +E  T S T
e|---------------------||--------------------------|
B|--------------------o||--------------------------|
G|-(0)--------5b7-(5)--||-(0)----2h4p2p0-(0)h2h4p2p|
D|----------0----------||--------------------------|
A|--------------------o||--------------------------|
E|---------------------||--------------------------|


                                    ~~~~~~~~        ~~
  |---5---| |---5---| |----6----|
  S S S S S S S S S S S S S S S S E E   +Q    E  e  Q   a      +E    S  a      +S
|-------------------------------------|---------------------------------------------|
|-------------------------------------|-----------------------------15--------------|
|-0h2h4p2p0h2h4p2p0h2h4p2p0h2h4s5s7-7-|-(7)-----12-12--14b16==(14)r----14b16==(14)--|
|-------------------------------------|------14-------------------------------------|
|-------------------------------------|---------------------------------------------|
|-------------------------------------|---------------------------------------------|


    +S    S  a     +S    S  a       S   S  S  S   a     +E    S  a     +S   +S    S  a     +E
e|----------------------------------------------------------------------------------------------|
B|-------15-------------15---------15--15-15-15--------------15------------------15-------------|
G|-(14)r----14b16=(14)r----14pb16=(14)-14-14-14r-14b16=(14)r----14b16=(14)-(14)r----14b16=(14)r-|
D|----------------------------------------------------------------------------------------------|
A|----------------------------------------------------------------------------------------------|
E|----------------------------------------------------------------------------------------------|


                                                       ~~
    S  a      +E    S  a      +E   E  a      +Q     E  E
e|-------------------------------------------------------|
B|-15--------------15----------------15b17==(15)r--15-15-|
G|----14b16==(14)r----14pb16r(14)-12---------------------|
D|-------------------------------------------------------|
A|-------------------------------------------------------|
E|-------------------------------------------------------|

 ~~~~~~                                      ~~
                             |------6-------|
  +Q    E  E  a  S  S  S  S  S  S  S  S  S  S
|-------------------------------------------15---|
|-(15)--13-15-------15h17p15-17p15----15h17------|
|-------------14s16----------------16------------|
|------------------------------------------------|
|------------------------------------------------|
|------------------------------------------------|


     ~~~~                         ~~              ~~
    +Q    E  e  Q   S  S  S  S    Q   S  S  S  S  Q   S  S  E
e|-(15)-----15-15-----15-15----|-15-----15-15----15-----15-15-|
B|-------17--------17-------17-|-----17-------17-----17-------|
G|-----------------------------|------------------------------|
D|-----------------------------|------------------------------|
A|-----------------------------|------------------------------|
E|-----------------------------|------------------------------|


                ~~~~~~~            ~~~~~~~~~~    ~~~~~~~~~~~~
    a  Q  E  a  E  +Q   E  a      +E     +Q   E  E       +Q    E      +E
e|-15s17----17s19-(19)----19pb20r(19)-|-(19)----20pb22==(20)--22b24==(22)--|
B|------------------------------------|------------------------------------|
G|------------------------------------|------------------------------------|
D|------------------------------------|------------------------------------|
A|------------------------------------|------------------------------------|
E|------------------------------------|------------------------------------|


    E  E   a      +E   E  E   a      +E   E  E
e|-22-22r-22b24==(22)-22-22r-22b24==(22)-22-22r-|
B|----------------------------------------------|
G|----------------------------------------------|
D|----------------------------------------------|
A|----------------------------------------------|
E|----------------------------------------------|

    a      +E   E  E   a      +E   E  E   a      +E   E
e|-22b24==(22)-22-22r-22b24==(22)-22-22r-22b24==(22)-22-|
B|------------------------------------------------------|
G|------------------------------------------------------|
D|------------------------------------------------------|
A|------------------------------------------------------|
E|------------------------------------------------------|


    S   a      +E.  E  E   a      +E   E   a      +E   E
e|-22r-22b24==(22)-22-22r-22b24==(22)-22r-22b24==(22)-22r-|
B|--------------------------------------------------------|
G|--------------------------------------------------------|
D|--------------------------------------------------------|
A|--------------------------------------------------------|
E|---------------------------------------------------------|

    a      +Q     E  E  E  E  a      +E    a      +E
e|-22b24==(22)r--22-20-19-20-20b22==(20)r-20b22==(20)--|
B|-----------------------------------------------------|
G|-----------------------------------------------------|
D|-----------------------------------------------------|
A|-----------------------------------------------------|
E|-----------------------------------------------------|

     ~~~~~
    +Q     E  E  E  e  a      +E    a       +E
e|-(20)r--20-19-17-19-19b20==(19)r(19)b20==(19)r|
B|----------------------------------------------|
G|----------------------------------------------|
D|----------------------------------------------|
A|----------------------------------------------|
E|----------------------------------------------|


   |-3-|  |--3--|                  |------6-------|  |3-|
   +E   S  S  S  S  E  a      +E    S  S  S  S  S  S  S  E  E
|=(19)p17-19p17----17--------------19p17----17----------------|
|---------------20----20b22==(20)r-------20----20p17-20-17----|
|----------------------------------------------------------19-|
|-------------------------------------------------------------|
|-------------------------------------------------------------|
|-------------------------------------------------------------|

   TP
            |--3--|
   E  S  S  S  S  S  a      +E   +E   +E    e E
|---------------------------------------------3-|
|-17-20-17----17-20-22b24==(22)-(22)-(22)r\---3-|
|----------19---------------------------------0-|
|---------------------------------------------0-|
|-----------------------------------------------|
|-------------------------------------------0---|


                           PM
   +H.      E E   +H.      E E   +H.      E E   E E E E E E E E
e|-(3)--------2-|-(2)--------0-|-(0)--------3-|---3---3---3---3-|
B|-(3)--------3-|-(3)--------3-|-(3)--------3-|---3---3---3---3-|
G|-(0)--------2-|-(2)--------0-|-(0)--------0-|---0---0---0---0-|
D|-(0)--------0-|-(0)--------2-|-(2)----------|---------------0-|
A|--------------|--------------|------------3-|---3---3---3-----|
E|------------2-|-(2)------0---|--------------|-------------3-3-|


     +H.      E E   +H.      E E   +H.      E E   E E E E E E E E   3x
e||--(3)--------2-|-(2)--------0-|-(0)--------3-|---3---3---3---3---||
B||o-(3)--------3-|-(3)--------3-|-(3)--------3-|---3---3---3---3--o||
G||--(0)--------2-|-(2)--------0-|-(0)--------0-|---0---0---0---0---||
D||--(0)--------0-|-(0)--------2-|-(2)----------|---------------0---||
A||o--------------|------------2-|-(2)--------3-|---3---3---3------o||
E||--(3)------2-2-|-(2)------0-0-|-(0)----------|-------------3-3---||



************************************

| (n)  Ghost note
| ~    Vibrato
| b    Bend
| p    Pull-off
| /    Slide up
| pb   Pre-bend
| h    Hammer-on
| x    Dead note
| \    Slide down
| r    Release
| tp   Tremolo picking
| PM   Palm mute    

************************************
Suggest correction
comments
print report bad tab
guest
You may want to rate the tab now too:
select rating
Wanna post a correction for this tab? Suggest correction