Oops, an error
Loading. Please wait.
We have an official Dont Stop Believin tab made by UG professional guitarists. Check out the tab »
×
by Journey
11,024 views 189 this week
no commentswrite comment
1 2 3 4 5
x 7
add to favorites
×
Save as Personal and add changes to this tab that will be seen only by you. Learn more ›
×
You can save this tab as Personal to edit and correct it or add notes. All changes will be seen only by you. Learn more »
save as personal
new!
launch autoscroll
font size
0
reset
how to read this tab
guitar tuner
backing track
0:00
0:00
Autoscroll
slow
fast
+/-
esc
set tempo
stop
Author
Difficulty
Tuning
novice
E A D G B E
This is a pretty cool song. please rate. comments to liam.slagle@yahoo.com

Beginning part. play first with PMs then faster and faster.

|----------------------|
|--17po16--------------|
|--------18po16--------|
|----------------------|
|----------------------|
|----------------------|

Buildup to verse...

|-----------------------------------|
|-----------------------------------|
|-----------------------------------|
|-----------------------------------|
|---6-6-6-6-6-6-6-6-7-7-7-7-7-7-7-7-|
|---4-4-4-4-4-4-4-4-5-5-5-5-5-5-5-5-|

Verse
|-------------------------------------------------------------|
|---7----5--------7----9---------7----9---------7----9--------|
|---8----6--------8----10--------8----10--------8----10-------|
|---9----7--------9----11--------9----11--------9----11-------|
|-----0-0--0-0-0-0--0-0---0-0-0-0-----------------------------|
|----------------------------------0-0---0-0-0-0--0-0--0-0-0-0|

End part

|-------------------------------|
|---16----17-----16---17---14---|
|---16----16-----16---17---14---|
|-------------------------------|
|-------------------------------|
|-------------------------------|

Chorus
|------0-----------------------------------------|
|------0-----------------------------------------|
|------------------------------------------------|
|------------------------------------------------|
|--------------2----2-4-6-4----4-6-7---------6-7-|
|---0----0-2-4-----------------------5-----5-----|

Last part of chorus

|------0---------------------------------------------------------|
|------0---------------------------------------------------------|
|----------------------------------------------------------------|
|----------------------------------------------------------------|
|-----------------2------2-4-6---6-6-6-6-6-6-6-6-6-7-7-7-7-7-6-7-|
|---0-------0-2-4----------------4-4-4-4-4-4-4-4-4-5-5-5-5-5-----|

[Solo]
e|---------------------14---16----17---16---14-----|-17---16----17--16--14----------------------|
B|--------14h16---17----------------------------17-|-----------------------17--16--17--14b------|
G|---16--------------------------------------------|--------------------------------------------|
D|-------------------------------------------------|--------------------------------------------|
A|-------------------------------------------------|--------------------------------------------|
E|-------------------------------------------------|--------------------------------------------|

e|---------------------14---16----17---16---14----17--|--17--16----14------19b---23b---24b------|
B|--------14h16----17--------------------------17-----|----------------17-----------------------|
G|--16------------------------------------------------|-----------------------------------------|
D|----------------------------------------------------|-----------------------------------------|
A|----------------------------------------------------|-----------------------------------------|
E|----------------------------------------------------|-----------------------------------------|

************************************
| h   Hammer-on
| b   Bend
************************************

Repeat chorus. it just fades out after that.
Suggest correction
comments
print report bad tab
guest
You may want to rate the tab now too:
select rating
Wanna post a correction for this tab? Suggest correction