Oops, an error
Loading. Please wait.

Once You Love Somebody bass

by Journey
43 views 3 this week
no commentswrite comment
1 2 3 4 5
2 more votes to show rating
add to favorites
×
Save as Personal and add changes to this tab that will be seen only by you. Learn more ›
×
You can save this tab as Personal to edit and correct it or add notes. All changes will be seen only by you. Learn more »
launch autoscroll
font size
0
reset
guitar tuner
edit
Autoscroll
slow
fast
+/-
esc
set tempo
stop
About this tab version
Full bass tab of song with most of Randy's fills. Please rate or comment. Was this info helpful? Yes No
Journey - Once You Love Somebody
Tuning - Standard
tabbed by jjhand

Slap bass style with right EQ and some light slapping of lower notes. 
Accented slaps and pops are marked. Enjoy and rate or comment. 


[Intro]

G|-------------------------|----------------------|------------------------|-----------------------|
D|-------------------------|----------------------|------------------------|-----------------------|
A|-5h7\-----5--5h7---------|-5--------------------|-5h7-----------5--5h7---|-5~--------------------|
E|---------------------5h7-|-----0----------------|------5--6--7-----------|------7---5------------|

G|-------------------------|----------------------|------------------------|-------------------7--9--|
D|-------------------------|----------------------|------------------------|--------------7h9--------|
A|-5h7\-----5--5h7---------|-5--------------------|-5h7-----------5--5h7---|-5~----------------------|
E|---------------------5h7-|-----0----------------|------5--6--7-----------|------7---5--------------|



[Verse]

G|-------------------------|----------------------|------------------------|------------------7P-----|
D|-------------------------|----------------------|------------------------|-------------------------|
A|-5h7\-----5--5h7---------|-5--------------------|-5h7-----------5--5h7---|-5~----------------------|
E|---------------------5h7-|-----0----------------|------5--6--7-----------|------7---5--------------|

G|-------------------------|----------------------|------------------------|-------------------------|
D|-------------------------|----------------------|------------------------|-------------------------|
A|-5h7\-----5--5h7---------|-5--------------------|-5h7-----------5--5h7---|-5~----------------------|
E|---------------------5h7-|-----0----------------|------5--6--7-----------|------7---5------12\-----|

G|-------------------------|----------------------|------------------------|-----------------------|
D|-------------------------|----------------------|------------------------|-----------------------|
A|-5h7\-----5--5h7---------|-5--------------------|-5h7-----------5--5h7---|-5~--------------------|
E|---------------------5h7-|-----0----------------|------5--6--7-----------|------7---5------------|



[Prechorus]

G|-----------------------|-----------------------|------------------------|-------------------------|
D|-----------------------|-----------------------|------------------------|-----------------/14\----|
A|-3---3---3---5----7----|-----------------------|-3---3---3---5----7-----|-5---5---5---7-----------|
E|-----------------------|-5---5---5---5---------|------------------------|-------------------------|



[Chorus]

G|-----------------------|--------------------------|-----------------------|--------------------------|
D|-----------------------|---------4--------4-5--4--|-----------------------|---------4--------4-5--4--|
A|-/7--------------------|-----5----------7---------|-7-7-------------------|-----5----------7---------|
E|-------3--5--7-----5h6-|-7------------------------|-------3--5--7-----5h6-|-7------------------------|

G|-----------------------|--------------------------|-----------------------|--------------------------|
D|-----------------------|---------4--------4-5--4--|-----------------------|---------4--------4-5--4--|
A|----------5--7---------|-----5----------7---------|----------5--7---------|-----5----------7---------|
E|-5-----8-----------5h6-|-7------------------------|-5-5---8-----------5h6-|-7------------------------|

G|-------------------------|----------------------|
D|-------------------------|----------------------|
A|-5h7\-----5--7-----------|-5--------------------|
E|---------------------5h7-|-----0----------------|



[Verse 2]

G|-------------------------|----------------------|------------------------|------------------7P--9P--|
D|-------------------------|----------------------|------------------------|--------------7h9---------|
A|-5h7\-----5--5h7---------|-5--------------------|-5h7-----------5--5h7---|-5~-----------------------|
E|---------------------5h7-|-----0----------------|------5--6--7-----------|------7---5---------------|

G|-------------------------|----------------------|
D|-------------------------|----------------------|
A|-5h7\-----5--5h7---------|-5--------------------|
E|---------------------5h7-|-----0----------------|



[Prechorus 2]

G|-----------------------|-----------------------|------------------------|---------------------------|
D|-----------------------|-----------------------|------------------------|-----------------12h14-----|
A|-3---3---3---5----7----|-----------------------|-3---3---3---5----7-----|-5---5---5---7-------------|
E|-----------------------|-5---5---5---5---------|------------------------|-----------------------12\-|



[Chorus 2]

G|-----------------------|--------------------------|-----------------------|--------------------------|
D|-----------------------|---------4--------4-5--4--|-----------------------|---------4--------4-5--4--|
A|-/7--------------------|-----5----------7---------|-7-7-------------------|-----5----------7---------|
E|-------3--5--7-----5h6-|-7------------------------|-------3--5--7-----5h6-|-7------------------------|

G|-----------------------|--------------------------|-----------------------|--------------------------|
D|-----------------------|---------4--------4-5--4--|-----------------------|---------4--------4-5--4--|
A|----------5--7---------|-----5----------7---------|----------5--7---------|-----5----------7---------|
E|-5-----8-----------5h6-|-7------------------------|-5-5---8-----------5h6-|-7------------------------|

G|-------------------------|----------------------|
D|-------------------------|----------------------|
A|-5h7\-----5--7-----------|-5--------------------|
E|---------------------5h7-|-----0----------------|



[Solo]
G|-------------------------|---------------7P--9P-|------------------------|-------------------------|
D|-------------------------|-----------7h9--------|------------------------|-------------------------|
A|-5h7\-----5--5h7---------|-5--------------------|-5h7-----------5--5h7---|-5~--------------------5-|
E|---------------------5h7-|-----0----------------|------5--6--7-----------|------7---5--------------|

G|-------------------------|----------------------|
D|-------------------------|----------------------|
A|-5h7\-----5--5h7---------|-5--------------------|
E|---------------------5h7-|-----0----------------|



[Prechorus 3]

G|-----------------------|-----------------------|------------------------|-------------------------|
D|-----------------------|-----------------------|------------------------|-------------------------|
A|-3---3---3---5----7----|-----------------------|-3---3---3---5----7-----|-5---5---5---12/14-------|
E|-----------------------|-5---5---5---5---------|------------------------|--------------------12\--|



[Final Chorus]

G|-----------------------|--------------------------|-----------------------|--------------------------|
D|-----------------------|---------4--------4-5--4--|-----------------------|---------4--------4-5--4--|
A|-/7--------------------|-----5----------7---------|-7-7-------------------|-----5----------7---------|
E|-------3--5--7-----5h6-|-7------------------------|-------3--5--7-----5h6-|-7------------------------|

G|-----------------------|--------------------------|-----------------------|----------------------------|
D|-----------------------|---------4--------4-5--4--|-----------------------|---------4--------4-5h7p5-4-|
A|----------5--7---------|-----5----------7---------|----------5--7---------|-----5----------7-----------|
E|-5-5---8-----------5h6-|-7------------------------|-5-5---8-----------5h6-|-7--------------------------|

   repeat 1
G|-----------------------|--------------------------|-----------------------|--------------------------|
D|-----------------------|---------4--------4-5--4--|-----------------------|---------4--------4-5--4--|
A|-/7--------------------|-----5----------7---------|-7-7-------------------|-----5----------7---------|
E|-------3--5--7-----5h6-|-7------------------------|-------3--5--7-----5h6-|-7------------------------|

G|-----------------------|--------------------------|-----------------------|--------------------------|
D|-----------------------|---------4--------4-5--4--|-----------------------|--------------------------|
A|----------5--7---------|-----5----------7---------|----------5--7---------|--------------------------|
E|-5-5---8-----------5h6-|-7------------------------|-5-5---8-----------5h6-|-7--7--5--5--3--3--2--2---|



[Outro Chorus]
G|-----------------------|--------------------------|-----------------------|--------------------------|
D|-----------------------|---------4--------4-5-5-4-|-----------------------|---------4--------4-5--4--|
A|-7-7-------------------|-----5----------7---------|-7\--------------------|-----5----------7---------|
E|-------3--5--7-----5h6-|-7------------------------|-------3--5--7-----5h6-|-7------------------------|

G|-----------------------|--------------------------|
D|-----------------------|-------------9-7-9--------|
A|----------5--7---------|-----5---9---------10\9-5-|
E|-5-----8-----------5h6-|-7------------------------|

G|-----------------------|--------------------------|-----------------------|--------------------------|
D|-----------------------|---------4--------4-5--4--|-----------------------|---------4--------4-5--4--|
A|-7-7-------------------|-----5----------7---------|-7-7-------------------|-----5----------7---------|
E|-------3--5--7-----5h6-|-7------------------------|-------3--5--7-----5h6-|-7------------------------|

G|-----------------------|--------------------------|-----------------------|----------------------|
D|-----------------------|---------4--------4-5--4--|-----------------------|----------------------|
A|----------5--7---------|-----5----------7---------|-5h7\-----5--7---------|-5--------------------|
E|-5-5---8-----------5p0-|-7------------------------|-------------------5h7-|-----0----------------|

G|-------------------------|-----------------7P--9P-|
D|-------------------------|-------------7h9--------|
A|-5h7\-----5--7-----------|-5----------------------|
E|---------------------5h7-|-----0------------------|

G|-------------------------|-------------------7P-|------------------------|-------------------7h9P--|
D|-------------------------|----------------------|------------------------|-------------------------|
A|-5h7\-----5--5h7---------|-5--------------------|-5h7-----------5--5h7---|-5~----------------------|
E|---------------------5h7-|-----0----------------|------5--6--7-----------|------7---5--------------|

(3:53)
G|-------------------------|---------------7P--7P-|------------------------|-------------------7h9P--|
D|-------------------------|----------------------|------------------------|-------------------------|
A|-5h7\-----5--5h7---------|-5--------------------|-5h7\-----5--5h7--------|-5-----------------------|
E|---------------------5h7-|-----0----------------|--------------------5h7-|-----0-------------------|

G|-------------------------|----------------------|------------------------|------------x-----x--x---|
D|-------------------------|----------------------|------------------------|-------------------------|
A|-5h7\-----5--5h7---------|-5--------------------|-5h7-----------5--5h7---|-5~----------------------|
E|---------------------5h7-|-----0----------------|------5--6--7-----------|------7---5--------------|

G|-------------------------|-------------x--x--x--|------------------------|------------14p12-----12-|
D|-------------------------|----------------------|------------------------|-----------------12h14---|
A|-5h7\-----5--5h7---------|-5--------------------|-5h7\-----5--5h7--------|-5-----------------------|
E|---------------------5h7-|-----0----------------|--------------------5h7-|-----0-------------------|

start fade out
G|-------------------------|----------------------|------------------------|---------------7h9P-7h9P-|
D|-------------------------|----------------------|------------------------|-------------------------|
A|-5h7\-----5--5h7---------|-5--------------------|-5h7-----------5--5h7---|-5~----------------------|
E|---------------------5h7-|-----0----------------|------5--6--7-----------|------7---5--------------|

play similarly as you fade out



************************************

| x   Dead note
| h   Hammer-on
| p   Pull-off
| /   Slide up
| \   Slide down
| ~   Vibrato
| P   Pop

************************************

            
            
Suggest correction
Creating personal tab
Creating personal tab
You can edit any tab online and save it as your Personal.

You can edit, replace or remove any tab part or add personal notes – all changes will be seen only by you.

Personal tabs can be accessed anytime from any device, even offline.
Learn more »
Give kudos to tab author, rate the tab!
1 2 3 4 5
comments
print report bad tab
guest
You may want to rate the tab now too:
select rating
Wanna post a correction for this tab? Suggest correction