Oops, an error
Loading. Please wait.

Whos Crying Now bass

version 2
version 2

Whole song

Interactive

by Journey
10,884 views 30 this week
2 commentsread comments
1 2 3 4 5
x 5
add to favorites
×
Save as Personal and add changes to this tab that will be seen only by you. Learn more ›
×
You can save this tab as Personal to edit and correct it or add notes. All changes will be seen only by you. Learn more »
launch autoscroll
font size
0
reset
guitar tuner
backing track
0:00
0:00
edit
Autoscroll
slow
fast
+/-
esc
set tempo
stop
Easy song but it has a cool groove with excellent harmony.

Intro/ Verse

G------------------------------------------|
D--------2--------2-0~---------------------|
A----0~----3----3------------0~----------0-|
E------------1~----------0~--------0--3----|

Fill Before Chorus

G-----------------------|
D-----------------------|
A----------0--3--2----0-|
E-----0--3----------3---|

Chorus

G---------------------|
D----------0----------|
A---0---------------0-|
E--------1-------3----|

Chorus Variation (Simple but cool chromatic lead in)

G---------------------------|
D---------------------------|
A---0--------3--4--5------0-|
E--------1-------------3----|

Bridge

G---------------------------------------------|
D---------------------------------------------|
A--------5---0----------5-----3--------1----0-|
E----1-----------3-1--------------3-----------|

Fill at 3:41

G----4--2--0--4--0--2-|
D---------------------|
A---------------------|
E---------------------|

Order

Intro 3x
Chorus 2x
Verse 2x
Chorus 2x
Bridge 1x
Verse 2x
Chorus Till the end

This is all 100% right. There are some wierd harmonies but it works musically and if you listen.

            
            
Suggest correction
Creating personal tab
Creating personal tab
You can edit any tab online and save it as your Personal.

You can edit, replace or remove any tab part or add personal notes – all changes will be seen only by you.

Personal tabs can be accessed anytime from any device, even offline.
Learn more »
comments
print report bad tab
2 comments total.
0 reply
Musicmaniac1234 10 Sep 12, 2010 01:36 PM

i really like the chorus variation :)

0 reply
heathermwebb 12 Mar 16, 2017 01:32 PM

Bridge:

G---------------------------------------------|
D---------------------------------------------|
A--------5---0----------5-----3--------1----0-|
E----1-----------3-1--------------3-----------|

guest
You may want to rate the tab now too:
select rating
Wanna post a correction for this tab? Suggest correction