Oops, an error
Loading. Please wait.

Alam Ko Di Ako Okay Lang Tab

766 views 6 this week
no commentswrite comment
1 2 3 4 5
3 more votes to show rating
add to favorites
launch autoscroll
font size
0
reset
how to read this tab
guitar tuner
Autoscroll
slow
fast
+/-
esc
set tempo
stop
Help us to improve Ultimate-Guitar.com Take our survey!
×
Author
Difficulty
novice
                           Alam Ko Di Ako Okay Lang
                            By: Jovit Baldivino
                           Transpose By: Davinzkie

Intro:

e----------15------------15----------12h13--12----17--15---12--12--12h13^--|
B--12--13-----13-12--13------13--------------------------------------------|
G--------------------------------------------------------------------------|
D--------------------------------------------------------------------------|
A--------------------------------------------------------------------------|
E--------------------------------------------------------------------------|

e--7-8^----------------------15--13-12--8--10^-----------------------------|
B--------12--13--15-15--13^---------------------12s13--15--13^-------------|
G--------------------------------------------------------------------------|
D--------------------------------------------------------------------------|
A--------------------------------------------------------------------------|
E--------------------------------------------------------------------------|

Verse 1

          C                Am
Alam kong di ako, ang nasa isip mo
     F             Fm
Pag hinahalikan mo ako

Outro 1:

e--------12-13--15---13--12--10v-10-8-10v-----------15-----------|
B--12-13-----------------------------------13-15-13--------------|
G----------------------------------------------------------------|
D----------------------------------------------------------------|
A----------------------------------------------------------------|
E----------------------------------------------------------------|


           C                     Am
Damang dama ko na siya parin ang yong mahal
   F                     G
nagtatanga tangahan lang ako


Chorus 1:

      C          G            Dm          Am
Okay lang handa akong, lokohin ang sarili ko
     F     Dm            G
At sabihin ako ang mahal mo
      C          G             Dm         Am
Okay lang handa akong, gaguhin ang sarili ko
 F                Dm            G
Huwag ka lang mawala sa piling ko


Outro 2:

e-------12-13--15---13--12--10v-------12-13--15---13--12--10v----------15----|
B--12-13------------------------12-13-------------------------13-15-13-------|
G----------------------------------------------------------------------------|
D----------------------------------------------------------------------------|
A----------------------------------------------------------------------------|
E----------------------------------------------------------------------------|


Verse 2:

           C               Am
Alam kong di ako, ang nasa isip mo
      F           Fm
Pag Niyayakap mo ako
         C                        Am
Dinig ko sa bibig mo ang pangalan niya
   F                      G
Nagbibingi-bingihan lang ako


Chorus 2:

      C         G          Dm       Am
Okay lang kaya kong itago sa sarili ko
    F          Dm          G
Ang sakit na nararamdaman ko
      C         G              Dm      Am
Okay lang handa akong, magdusa para sa iyo
 F                Dm            G
Huwag ka lang mawala sa piling ko

(repeat chorus 1&2)

solo : ginagawa ko pa lang. just wait .hehe



sa mga pare ko da sa makakita sa tab ko . . auz lang?
Suggest correction
Give kudos to tab author, rate the tab!
1 2 3 4 5
comments
print report bad tab
guest
You may want to rate the tab now too:
select rating
Wanna post a correction for this tab? Suggest correction