Oops, an error
Loading. Please wait.

Atmosphere Bass

version 1
version 1

Whole song

Interactive

31,569 views 111 this week
2 commentsread comments
1 2 3 4 5
x 6
add to favorites
launch autoscroll
font size
0
reset
guitar tuner
backing track
0:00
0:00
×
Best way to learn
"Atmosphere"
Autoscroll
slow
fast
+/-
esc
set tempo
stop
[C#]                    (drum fill)    [F#]
G|----------------------------------------------11/------------------------|
D|-----------------------11---11----------------11/------------------------|
A|---4--4------(4)/-11----------------------------------------(9)/11-------|
E|-------------------------------------------------------9-----------------|

            (drum fill)  [C#]                                   (drum fill)
G|-------------------------------------------------------------------------|
D|---11---11--------------------------------------11---11--------(11)------|
A|------------------------4---4--------(4)/(11)----------------------------|
E|-------------------------------------------------------------------------|

   [F#]                            (drum fill) [C#]**<>
G|-------------------------------------------------------------------------|
D|--11/---------------------11---11--------------11--11-11-----11--11-11---|
A|--11/-----------(9)/-11--------------------------------------------------|
E|---------9---------------------------------------------------------------|

   [F#]**                   [C#] <>
G|-------------------------------------10----10--------------10----10------|
D|--11--11-11----11--11-11----11----11----11-------11-----11----11---------|
A|-------------------------------------------------------------------------|
E|-------------------------------------------------------------------------|
                            Walk 

    [F#]                                           [C#]                  
G|-----------10----10-------------10----10------------10----10-------------|
D|--11----11----11-------11----11----11------11----11----11-------11---11--|
A|-------------------------------------------------------------------------|
E|-------------------------------------------------------------------------|
   in                  si--lence             Don't walk a-way
        
                [F#]                                    [C#]
G|--10----10-------------10----10-------------10----10-------------10----10|
D|-----11-------11----11----11-------11----11----11-------11----11----11---|
A|-------------------------------------------------------------------------|
E|-------------------------------------------------------------------------|
               in silence                                  See the danger

                        [F#]                               [C#]
G|-----------10----10----11--10------11----10----11-10---------------10----|
D|--11----11----11--------------11------------11------10----11----11----11-|
A|-------------------------------------------------------------------------|
E|-------------------------------------------------------------------------|
                        Always danger                      Endless talking
        
                             [F#]                               [C#]
G|--10-------------10----10----11--10------11----10----11-10---------------|
D|--------11----11----11--------------11------------11------10----11----11-|
A|-------------------------------------------------------------------------|
E|-------------------------------------------------------------------------|
                               Life rebuilding                Don't walk

                                    [F#]        
G|--10----10-------------10----10----11-11-11--13-11-10----------11-11-11--|
D|-----11-------11----11----11--------------------------9---11-------------|
A|-------------------------------------------------------------------------|
E|-------------------------------------------------------------------------|
  a-way
          
[Bridge]               
G|--13-11-10-----10----(13)--(11)---10-11-13-11--10--|
D|------------9--------------------------------------|
A|---------------------------------------------------|
E|---------------------------------------------------|


************************************

| /    Slide up
| (n)  Ghost note
| >    Accented note

************************************
Suggest correction
comments
print report bad tab
2 comments total.
0 reply
swave75 382 Jul 20, 2012 07:14 PM

Awesome tab!!!

0 reply
marsamgod 10 Oct 14, 2015 01:50 AM

Superb! Great work

guest
You may want to rate the tab now too:
select rating
Wanna post a correction for this tab? Suggest correction