Oops, an error
Loading. Please wait.

Atmosphere Bass Tab

version 2
version 2

Whole song

Interactive

4,926 views 6 this week
no commentswrite comment
1 2 3 4 5
please rate
add to favorites
launch autoscroll
font size
0
reset
guitar tuner
Tab Pro tools
  • play this tab
  • loop segment
  • change instrument
  • show fretboard
  • metronome
×
Best way to learn
"Atmosphere"
Autoscroll
slow
fast
+/-
esc
set tempo
stop
Contributor
Tabbed by: jaronthebassist

                                        Atmosphere                                           


                                                                                 Joy Division
Bass



      Q.     Q.       Q        Q.      Q.     Q     4x    Q.      Q.     Q     4x
G||------------------------|------------------------||-------------------------||
D||*-----------------------|--11------11------L----*||*--11------11------L----*||
A||*--4------4S------11----|-----------------------*||*-----------------------*||
E||------------------------|------------------------||-------------------------||


    Q.      Q     E   E   E  10x    Q     E   H         E      Q     E   E   E   E   Q     
-----------------10------10---||---11----10----------------|--11----10------11--10--------|
*--11------11--------11------*||*------------11--------11--|------------11----------11----|
*----------------------------*||*--------------------------|------------------------------|
------------------------------||---------------------------|------------------------------|


   Q.      Q     E   E   E      Q.      Q     E   E   E        Q     E   E   E   Q     E   
----------------10------10--|----------------10------10---||--11----13--11--10--------10--|
--11------11--------11------|--11------11--------11------*||--------------------11--------|
----------------------------|----------------------------*||------------------------------|
----------------------------|-----------------------------||------------------------------|


   Q     E   E   E   E   Q        W                   W                    W                 
--11----13--11--10------10----|--13----------------|--L----------------|--11----------------|
--------------------11--------|--------------------|-------------------|--------------------|
------------------------------|--------------------|-------------------|--------------------|
------------------------------|--------------------|-------------------|--------------------|


  Q     E   E   E   E   Q          Q.      Q     E   E   E  18x    Q     E   H         E   
--L----10--11--13--11--10----||-----------------10------10---||---11----10----------------|
-----------------------------||*--11------11--------11------*||*------------11--------11--|
-----------------------------||*----------------------------*||*--------------------------|
-----------------------------||------------------------------||---------------------------|


   Q     E   E   E   E   Q        Q.      Q     E   E   E      Q.      Q     E   E   E     
--11----10------11--10--------|----------------10------10--|----------------10------10---||
------------11----------11----|--11------11--------11------|--11------11--------11------*||
------------------------------|----------------------------|----------------------------*||
------------------------------|----------------------------|-----------------------------||


   Q     E   E   E   Q     E      Q     E   E   E   E   Q        W                 
--11----13--11--10--------10--|--11----13--11--10------10----|--13----------------|
--------------------11--------|--------------------11--------|--------------------|
------------------------------|------------------------------|--------------------|
------------------------------|------------------------------|--------------------|


  W                    W                   Q     E   E   E   E   Q     
--L----------------|--11----------------|--L----10--11--13--11--10----|
-------------------|--------------------|-----------------------------|
-------------------|--------------------|-----------------------------|
-------------------|--------------------|-----------------------------|


     Q.      Q     E   E   E  15x   Q.      Q     E   E   E      Q.      Q     E   E   E   
|-----------------10------10---||--------------------10------|----------------10------10--|
|*--11------11--------11------*||--11------11----11------11--|--11------11--------11------|
|*----------------------------*||----------------------------|----------------------------|
|------------------------------||----------------------------|----------------------------|


   Q.      Q     E   E   E        Q     E   H         E      Q     E   E   E   E   Q     
----------------10------10--||---11----10----------------|--11----10------11--10--------|
--11------11--------11------||*------------11--------11--|------------11----------11----|
----------------------------||*--------------------------|------------------------------|
----------------------------||---------------------------|------------------------------|


   Q.      Q     E   E   E      Q.      Q     E   E   E        Q     E   E   E   Q     E   
----------------10------10--|----------------10------10---||--11----13--11--10--------10--|
--11------11--------11------|--11------11--------11------*||--------------------11--------|
----------------------------|----------------------------*||------------------------------|
----------------------------|-----------------------------||------------------------------|


   Q     E   E   E   E   Q        W                   W                    W                 
--11----13--11--10------10----|--13----------------|--L----------------|--11----------------|
--------------------11--------|--------------------|-------------------|--------------------|
------------------------------|--------------------|-------------------|--------------------|
------------------------------|--------------------|-------------------|--------------------|


  W                      Q.      Q     E   E   E  20x   W                  
--L----------------||-----------------10------10---||--------------------||
-------------------||*--11------11--------11------*||--11----------------||
-------------------||*----------------------------*||--------------------||
-------------------||------------------------------||--------------------||




Duration Legend
---------------
W - whole
H - half
Q - quarter
E - 8th
S - 16th
T - 32nd
X - 64th
. - note dotted
|-n-|  - n-tuplets


Tablature Legend
----------------
L - tied note
x - dead note
g - grace note
(n) - ghost note
> - accentuded note
NH - natural harmonic
AH - artificial harmonic
TH - tapped harmonic
SH - semi harmonic
PH - pitch harmonic
h - hammer on
p - pull off
b - bend
br - bendRelease
pb - preBend
pbr - preBendRelease
brb - bendReleaseBend
\n/ - tremolo bar dip
\n - tremolo bar dive
-/n - tremolo bar Release up
/n\ - tremolo bar inverted dip
/n - tremolo bar return
-\n - tremolo bar Release down
S - shift slide
s - legato slide
/ -  slide into from below or out of upwards
\ -  slide into from above or out of downwards
~ - vibrato
W - wide vibrato
tr - trill
TP - tremolo picking
T - tapping
S - slap
P - pop
< - fade in
^ - brush up
v - brush down
comments
We did not receive enough feedback on this tab! Please rate:
print report bad tab
1 2 3 4 5
I want to post or [tab]
guest
You may want to rate the tab now too:
select rating
Please do not post tabs as comments. Select "correction" instead!