Oops, an error
Loading. Please wait.

Atrocity Exhibition Tab

version 1
version 1

Whole song

Interactive

4,107 views 6 this week
no commentswrite comment
1 2 3 4 5
2 more votes to show rating
add to favorites
launch autoscroll
font size
0
reset
how to read this tab
guitar tuner
Autoscroll
slow
fast
+/-
esc
set tempo
stop
Help us to improve Ultimate-Guitar.com Take our survey!
×
Joy Division - Atrocity Exhibition

These are the main riffs in the song. God knows what the producer has done to make them
so crazy on the Album lol

e|--1~~----1--1~~--|-------------------|-------------------------|
B|--1~~----1--1~~--|-------------------|-------------------------|
G|--x~~----x--x~~--|-------------------|-------------------------|
D|--3~~----3--3~~--|--3---3-3----6--5--|----10--10-10---8--8--8--|
A|--3~~----3--3~~--|--3---3-3----6--5--|----10--10-10---8--8--8--|
E|--1~~----1--1~~--|--1---1-1--1s4--3--|----8----8--8---6--6--6--|

Use palm mutes during the bridge section.

e|---------------------------------------------------------------------------|
B|---------------------------------------------------------------------------|
G|---------------------------------------------------------------------------|
D|---------------------------------------------------------------------------|
A|---------------------------------------------------------------------------|
E|-1--1-1-1-1-1-4-4-3-3--1-1-1-1-1-4-4-3-3-8-8-8-8-8-6-6-6-6-1-1-1-1-4-4-3-3-|
PM...........................................................................

Doesn¡¦t seem a lot, but this is all the guitar does in the song, except for the solo
seems to be Hooky (Who played Guitar on this song) going crazy with a slide and a whammy
which is impossible to tab unfortunately ƒ¼ It¡¦s easiest to hear the guitar on the live 
that appears on ¡§Heart and Soul¡¨ (CD4).
Suggest correction
Give kudos to tab author, rate the tab!
1 2 3 4 5
comments
print report bad tab
guest
You may want to rate the tab now too:
select rating
Wanna post a correction for this tab? Suggest correction