Oops, an error
Loading. Please wait.

Autosuggestion Bass

version 2
version 2

Whole song

1,900 views 3 this week
1 commentread comment
1 2 3 4 5
x 4
add to favorites
launch autoscroll
font size
0
reset
guitar tuner
×
Best way to learn
"Autosuggestion"
Autoscroll
slow
fast
+/-
esc
set tempo
stop
Author
Difficulty
Main:
G|---------------|
D|---------------|
A|--------5------|
E|--3/5----------|


G|---------------|
D|------------7--|
A|--------5------|
E|--3h5----------|


G|----------------5-55-|
D|------------7--------|
A|--------5------------|
E|--3h5----------------|

Ending:
G|----------------5-55-|
D|------------7--------|
A|-------5-5-----------|
E|--3-3----------------|

Well that's pretty much all of it. I think Hooky throws in a few random slides and stuff
or 3 times in the song but they're just extras. Sorry I didn't put the patterns on. It
be too hard to figure out when to play what. I think there is a simple pattern to it. 
listen to the song.
Suggest correction
comments
print report bad tab
1 comment total.
0 reply
uber_mod 10 Jul 06, 2010 02:38 AM

sounds good, nice work x

guest
You may want to rate the tab now too:
select rating
Wanna post a correction for this tab? Suggest correction