Oops, an error
Loading. Please wait.

Ceremony Bass Tab

version 1
version 1

Whole song

Interactive

6,871 views 24 this week
no commentswrite comment
1 2 3 4 5
please rate
add to favorites
launch autoscroll
font size
0
reset
guitar tuner
Autoscroll
slow
fast
+/-
esc
set tempo
stop
Help us to improve Ultimate-Guitar.com Take our survey!
×
Author
Tabbed by: jaronthebassist

                      Ceremony (New Order version)                         


                                                   Joy Division / New Order
Bass



       Q     E   E   Q     E   E      E   E   E   E   E   E   E  E   
G||---------17------17--------17--|---L------17------17------17-----|
D||*--15--------15--------15------|------15------15------15------0--|
A||*------------------------------|---------------------------------|
E||-------------------------------|---------------------------------|


   Q     E   E   Q     E   E      E   E   E   E   E   E   E  E   7x
--------17------17--------17--|---L------17------17------17------||
------------------------------|------------------------------0--*||
--15--------15--------15------|------15------15------15---------*||
------------------------------|----------------------------------||


    Q     E   E   Q     E   E      E   E   E   E   E   E   E   E    
-------------------------------|-----------------------------------|
*------------------------------|-----------------------------------|
*--------15------15--------15--|---L------15------15------15-------|
---13--------13--------13------|------13------13------13------13\--|


  Q     E  E   Q    E   E      E  E   E  E   E  E   E  E    6x
---------------------------|--------------------------------||
-------10-----10-------10--|---L-----10-----10-----10------*||
---------------------------|-------------------------------*||
--8--------8--------8------|------8------8------8------8/---||


    Q     E   E   E   E   E   E      E   E   E   E   E   E   E   E    
---17----17------17------17------|--17------17------17------17-------|
*--15--------15------15------15--|------15------15------15------15\--|
*--------------------------------|-----------------------------------|
---------------------------------|-----------------------------------|


   Q     E   E   E   E   E   E      E   E   E   E   E   E   E   E    4x
--12----12------12------12--12--|---L------12------12------12--------||
--10--------10------10------10--|---L--10------10------10------10/--*||
--------------------------------|-----------------------------------*||
--------------------------------|------------------------------------||


   Q     E   E   E   E   E   E      E   E   E   E   E   Q.      
--17--------17------17------17--|------17------17--17--17------|
--15----15------15------15------|--15------15------------------|
--------------------------------|------------------------------|
--------------------------------|------------------------------|


   Q     E   E   Q     E   E     E   E   E   E   E   E   E  E   
--------12------12--------12--|--L------12------12------12-----|
--10--------10--------10------|-----10------10------10------0--|
------------------------------|--------------------------------|
------------------------------|--------------------------------|


     Q     E   E   Q     E   E      E   E   E   E   E   E   E   E    
|-------------------------------|-----------------------------------|
|*------------------------------|-----------------------------------|
|*--------15------15--------15--|---L------15------15------15-------|
|---13--------13--------13------|------13------13------13------13\--|


  Q    E  E   Q    E   E      E  E   E  E   E  E   E  E    4x
--------------------------|--------------------------------||
-------------10-------10--|---L-----10-----10-----10------*||
--------------------------|-------------------------------*||
--8----8--8--------8------|------8------8------8------8/---||


    Q     E   E   E   E   E   E      E   E   E   E   E   E   E   E    
---17----17------17------17------|--17------17------17------17-------|
*--15--------15------15------15--|------15------15------15------15\--|
*--------------------------------|-----------------------------------|
---------------------------------|-----------------------------------|


   Q     E   E   E   E   E   E      E   E   E   E   E   E   E   E    3x
--12----12------12------12--12--|---L------12------12------12--------||
--10--------10------10------10--|---L--10------10------10------10/--*||
--------------------------------|-----------------------------------*||
--------------------------------|------------------------------------||


   Q     E   E   E   E   E   E      E   E   E   E   E   E   E   E    
--17----17------17------17------|--17------17------17------17-------|
--15--------15------15------15--|------15------15------15------15\--|
--------------------------------|-----------------------------------|
--------------------------------|-----------------------------------|


   Q     E   E   E   E   E   E      E   E   E   E   E   E   E  E   
--12--------12------12------12--|------12------12------12---------|
--10----10------10------10------|--10------10------10------10--0--|
--------------------------------|---------------------------------|
--------------------------------|---------------------------------|


   E   E   E   E   E   E   E   E      E   E   E   E   E   E   E   E   
----------------------------------|----------------------------------|
--15--15--15--15--15--15--15--15--|--15--15--15--15--15--14--15--17--|
----------------------------------|----------------------------------|
----------------------------------|----------------------------------|


   E   E   E   E   E   E   E   E      E   E   E   E   E    E   E   E   
----------------------------------|-----------------------------------|
------------------------------14--|---L------14------14S--17--17--17--|
--15--15--15--15--15--15--15------|------15------15-------------------|
----------------------------------|-----------------------------------|


   E   E   E   E   E   E   E   E      E   E   E   E   E   E   E   E   
----------------------------------|-------------------------------0--|
--15--15--15--15--15--15--15--15--|--15--15--15--15--15--14--15--15--|
----------------------------------|----------------------------------|
----------------------------------|----------------------------------|


   E   E   E   E   E   E   E   E      E   E   E   E   E   E   E   E   
---L---L---L---L---L---L---L---L--|----------------------------------|
----------------------------------|--------------14--14------14--14--|
--15--15--15--15--15--15--15--15--|--15--15--15----------15----------|
----------------------------------|----------------------------------|


   E   E   E   E   E   E   E   E      E   E   E   E   E   E   E   E   
----------------------------------|----------------------------------|
--15--15--15--15--15--15--15--15--|--15--15--15--15--15--14--15--17--|
----------------------------------|----------------------------------|
----------------------------------|----------------------------------|


   E   E   E   E   E   E   E   E      E   E   E   E   E    E   E   E   
----------------------------------|-----------------------------------|
------------------------------14--|---L------14------14S--17--17--17--|
--15--15--15--15--15--15--15------|------15------15-------------------|
----------------------------------|-----------------------------------|


   E   E   E   E   E   E   E   E      E   E   E   E   E   E   E   E   
----------------------------------|-------------------------------0--|
--15--15--15--15--15--15--15--15--|--15--15--15--15--15--14--15--15--|
----------------------------------|----------------------------------|
----------------------------------|----------------------------------|


   E   E   E   E   E   E   E   E      E   E   E   E   E   E   E   E   
---L---L---L---L---L---L---L---L--|----------------------------------|
----------------------------------|--------------------------14--14--|
--15--15--15--15--15--15--15--15--|--15--15--15--15--15--15----------|
----------------------------------|----------------------------------|


   E   E   E   E   E   E   E   E      E   E   E   E   E   E   E   E   
----------------------------------|----------------------------------|
--15--15--15--15--15--15--15--15--|--15--15--15--15--15--14--15--17--|
----------------------------------|----------------------------------|
----------------------------------|----------------------------------|


   E   E   E   E   E   E   E   E      E   E   E   E   E    E   E   E   
----------------------------------|-----------------------------------|
------------------------------14--|---L------14------14S--17--17--17--|
--15--15--15--15--15--15--15------|------15------15-------------------|
----------------------------------|-----------------------------------|


   E   E   E   E   E   E   E   E      E   E   E   E   E   E   E   E   
----------------------------------|-------------------------------0--|
--15--15--15--15--15--15--15--15--|--15--15--15--15--15--14--15--15--|
----------------------------------|----------------------------------|
----------------------------------|----------------------------------|


   E   E   E   E   E   E   E   E      E   E   E   Q     E   E   E   
---L---L---L---L---L---L---L---L--|--------------------------------|
----------------------------------|--14--14------14--------14--14--|
--15--15--15--15--15--15--15--15--|---L------15--------15----------|
----------------------------------|--------------------------------|


   E   E   E   E   E   E   E   E      E   E   E   E   E   E   E   E   
----------------------------------|----------------------------------|
--15--15--15--15--15--15--15--15--|--15--15--15--15--15--14--15--17--|
----------------------------------|----------------------------------|
----------------------------------|----------------------------------|


   E   E   E   E   E   E   E   E      E   E   E   E   E    E   E   E   
----------------------------------|-----------------------------------|
------------------------------14--|---L------14------14S--17--17--17--|
--15--15--15--15--15--15--15------|------15------15-------------------|
----------------------------------|-----------------------------------|


   E   E   E   E   E   E   E   E      E   E   E   E   E   E   E   E   
----------------------------------|-------------------------------0--|
--15--15--15--15--15--15--15--15--|--15--15--15--15--15--14--15--15--|
----------------------------------|----------------------------------|
----------------------------------|----------------------------------|


   E   E   E   E   E   E   E   E      E   E   E   E   E   E   E   E   
---L---L---L---L---L---L---L---L--|----------------------------------|
----------------------------------|--14--14--14--14--14--14--14--14--|
--15--15--15--15--15--15--15--15--|--15--15--15--15--15--15--15--15--|
----------------------------------|----------------------------------|


     Q     E   E   E   E   E   E      E   E   E   E   E   E   E   E    
|---17----17------17------17------|--17------17------17------17-------|
|*--15--------15------15------15--|------15------15------15------15\--|
|*--------------------------------|-----------------------------------|
|---------------------------------|-----------------------------------|


   Q     E   E   E   E   E   E      E   E   E   E   E   E   E   E      
--12----12------12------12--12--|---L------12------12------12--------||
--10--------10------10------10--|---L--10------10------10------10/--*||
--------------------------------|-----------------------------------*||
--------------------------------|------------------------------------||


   Q     E   E   E   E   E   E      E   E   E   E   E   E   Q      
--17----17------17------17------|--17------17------17------17\----|
--15--------15------15------15--|------15------15------15--15\----|
--------------------------------|---------------------------------|
--------------------------------|---------------------------------|


   Q     E   E   E   E   E   E      E   E   E   E   E   E   E   E    
--12----12------12------12--12--|---L------12------12------12-------|
--10--------10------10------10--|---L--10------10------10------10/--|
--------------------------------|-----------------------------------|
--------------------------------|-----------------------------------|


   Q     E   E   E   E   E   E      E   E   E   E   E   E   Q      
--17----17------17------17------|--17------17------17------17\----|
--15--------15------15------15--|------15------15------15--15\----|
--------------------------------|---------------------------------|
--------------------------------|---------------------------------|


   W                  
--12----------------||
--10----------------||
--------------------||
--------------------||




Duration Legend
---------------
W - whole
H - half
Q - quarter
E - 8th
S - 16th
T - 32nd
X - 64th
. - note dotted
|-n-|  - n-tuplets


Tablature Legend
----------------
L - tied note
x - dead note
g - grace note
(n) - ghost note
> - accentuded note
NH - natural harmonic
AH - artificial harmonic
TH - tapped harmonic
SH - semi harmonic
PH - pitch harmonic
h - hammer on
p - pull off
b - bend
br - bendRelease
pb - preBend
pbr - preBendRelease
brb - bendReleaseBend
\n/ - tremolo bar dip
\n - tremolo bar dive
-/n - tremolo bar Release up
/n\ - tremolo bar inverted dip
/n - tremolo bar return
-\n - tremolo bar Release down
S - shift slide
s - legato slide
/ -  slide into from below or out of upwards
\ -  slide into from above or out of downwards
~ - vibrato
W - wide vibrato
tr - trill
TP - tremolo picking
T - tapping
S - slap
P - pop
< - fade in
^ - brush up
v - brush down
Suggest correction
What's this?
You can suggest a correction to this tab. Community and Mods will review your correction and vote to approve or reject it.
comments
We did not receive enough feedback on this tab! Please rate:
print report bad tab
1 2 3 4 5
guest
You may want to rate the tab now too:
select rating
Please do not post tabs as comments. Select "correction" instead!