Oops, an error
Loading. Please wait.

Ceremony Tab

version 1
version 1

Whole song

Interactive

43,177 views 129 this week
2 commentsread comments
1 2 3 4 5
accurate
x 6
add to favorites
launch autoscroll
font size
0
reset
how to read this tab
guitar tuner
Tab Pro tools
  • play this tab
  • loop segment
  • change instrument
  • show fretboard
  • metronome
Autoscroll
slow
fast
+/-
esc
set tempo
stop
Contributor
-------------------------------------------------------------------------------
			     Ceremony - Joy Division
-------------------------------------------------------------------------------
Tabbed by: Gallagher2006

Tuning: Standard

Hey this is for the live version of the song that appears on “Still”, and being the only 
version the band ever did, I thought I’d tab it ;)

Starts out without the intro weirdly...and comes in after the verse, but before Ian 
the chorus singing (although he’s barely audible. God damn sound guy >_<)

Listen to song for timing

e|------------------------------------------------------------------------------|
B|------------------------------------------------------------------------------|
G|------------------------------------------------------------------------------|
D|---------------------------------------10--9---------10--9--------------------|
A|-----10-10---10-------10-10---10-------------10------------10-----10--10---10-|
E|--8--------8--------8-------8-------8-------------8------------8---------8----|


Chorus
				Quickly...
e|--0--0--0-8--8-----------------8-8--8--------------|
B|--0--0--0-8--8-----------------8-8--8--------------|
G|--9--9--9-9--9------x20--------9-9--9--------------|
D|--10-10-1010-10----Approx-----10-10-10-------------|
A|---------------------------------------------------|
E|---------------------------------------------------|

Solo...(Barney fucks up! L0L)

e|---------------------------------------------------------------------------|
B|---------------------------------------------------------------------------|
G|---------------------------------------------------------------------------|
D|--------------5--5---------------------------------------------------------|
A|--7--5--7--5--------8--7--5-----7--5-7--7--5-7-5-7-5-7--x-2----------------|
E|---------------------------------------------------------------------------|


            (meant to be a 7, but he misjudged the note...twice lol)
e|-------------------------|------------------------|
B|-------------------------|------------------------|
G|-------------------------|---------x2-------------|
D|--/9---7-9--7-12-12-10-9-x------------------------|
A|--------------------------------------------------|
E|--------------------------------------------------|

Chorus

e|--0--0--0-8--8----------|
B|--0--0--0-8--8----------|
G|--9--9--9-9--9----------|
D|--10-10-1010-10---------|
A|------------------------|
E|------------------------|

Then into the comedown


e|---------------------------------------------------------------------------|
B|---------8---------8------------8---etc and just improv--------------------|
G|------9---------9----------9-------------these notes-----------------------|
D|--10--------10----------10---10--------------------------------------------|
A|---------------------------------------------------------------------------|
E|---------------------------------------------------------------------------|

e|--0--0--0-8--8-----------------------------|
B|--0--0--0-8--8-----------------------------|
G|--9--9--9-9--9------x20--------------------|
D|--10-10-1010-10----Approx------------------|
A|-------------------------------------------|
E|-------------------------------------------|

e|------------------------------------------------------------------------|
B|------------------------------------------------------------------------|
G|-------------------------------------------------------------------5~~--|
D|-------------5--5-------------------------------------5-5----------5~~--|
A|--7--5-7--5--------8-7--5---7--5-7-5-7-5---7--5-7--5------8--7--5--3~~--|
E|------------------------------------------------------------------------|

That’s it really...not as polished as the “New Order” version, but its not exactly well 
and Ians vocals were mixed too low.,..AND THIS WAS THE ONLY TIME THEY PERFORMED IT!!! >_<
comments
print report bad tab
2 comments total.
+1 reply
nintendoeats wrote on January 21 2008, 10:50 am

The compilation "Heart and soul" has a complete and better sounding version of the song. The lyrics are still inaudible.
It's one of the best things i've ever heard.

0 reply
nintendoeats wrote on January 21 2008, 10:50 am

The compilation "Heart and soul" has a complete and better sounding version of the song. The lyrics are still inaudible.
It's one of the best things i've ever heard.

I want to post or [tab]
guest
You may want to rate the tab now too:
select rating
Please do not post tabs as comments. Select "correction" instead!