Oops, an error
Loading. Please wait.

Colony Tab

version 1
version 1

Whole song

Interactive

6,371 views 12 this week
no commentswrite comment
1 2 3 4 5
accurate
x 3
add to favorites
launch autoscroll
font size
0
reset
how to read this tab
guitar tuner
Tab Pro tools
  • play this tab
  • loop segment
  • change instrument
  • show fretboard
  • metronome
Autoscroll
slow
fast
+/-
esc
set tempo
stop
Contributor
Difficulty
novice
Intro:

e|-------------------------|
B|-------------------------|
G|-------------------------|
D|-x-x-x-x-x-x-x-x-x-x-x-2-| x2
A|-x-x-x-x-x-x-x-x-x-x-x-2-|
E|-x-x-x-x-x-x-x-x-x-x-x-0-|

e|---------------------------------|
B|---------------------------------|
G|-----------7-7-7-7-7-7-7-7-7-7-9-|
D|-----------7-7-7-7-7-7-7-7-7-7-9-|
A|-----------5-5-5-5-5-5-5-5-5-5-7-|
E|-3-2---2-0-----------------------|

Verse 1:

e|-------------------------|
B|-------------------------|
G|-------------------------|
D|-x-x-x-x-x-x-x-x-x-x-x-2-| x2
A|-x-x-x-x-x-x-x-x-x-x-x-2-|
E|-x-x-x-x-x-x-x-x-x-x-x-0-|

Break 1:

e|-------------------------------------|
B|-------------------------------------|
G|---------------7-7-7-7-7-7-7-7-7-7-9-|
D|---------------7-7-7-7-7-7-7-7-7-7-9-|
A|---------------5-5-5-5-5-5-5-5-5-5-7-|
E|-3-3-2---2-2-0-----------------------|

Verse 2:

e|-------------------------|
B|-------------------------|
G|-------------------------|
D|-x-x-x-x-x-x-x-x-x-x-x-2-| x2
A|-x-x-x-x-x-x-x-x-x-x-x-2-|
E|-x-x-x-x-x-x-x-x-x-x-x-0-|

Break 2:

e|--------------------------------------------------------|
B|--------------------------------------------------------|
G|--------------------------------------------------7-7-9-|
D|-9-9--7-9----------9-------------9-9--7-9---------7-7-9-|
A|----------9--9-9----9---------------------9--9-9--5-5-7-|
E|---------------------12---------------------------------|
                     (let ring...)

e|-------------------------------------------------|
B|-------------------------12-12-12----------------|
G|-7-7-7-7-7-7-7-7-7-7-9---11-11-11-9-9-9-7-7-7-9--|
D|-7-7-7-7-7-7-7-7-7-7-9---9--9--9--7-7-7-5-5-5-7--|
A|-5-5-5-5-5-5-5-5-5-5-7---------------------------|
E|-------------------------------------------------|

Verse 3:

e|-----------------------------------------------|
B|------------------------12-12-12---------------|
G|-7-7-7-7-7-7-7-7-7-7-9--11-11-11-9-9-9-7-7-7-9-|
D|-5-5-5-5-5-5-5-5-5-5-7--9--9--9--7-7-7-5-5-5-7-|
A|-----------------------------------------------|
E|-----------------------------------------------|

In this colony...
e|------------------------|
B|-12-12-12---------------|
G|-11-11-11-9-9-9-7-7-7-9-|
D|-9--9--9--7-7-7-5-5-5-7-|
A|------------------------|
E|------------------------|

Outro Bridge:

e|-------------------------|
B|-------------------------|
G|-----9-----9-----9-----9-|
D|-7-9---7-9---7-9---7-9---| x8
A|-------------------------|
E|-------------------------|
  PM......................

e|-------------------------|
B|-------------------------|
G|-7-9-7-9-9-7-9-9-9b10r9--|
D|-------------------------| x2
A|-------------------------|
E|-------------------------|


e|---------------------------|
B|---------------------------|
G|-7-9-9-9-7-9-9-9-7-9-9-9-9-|
D|---------------------------| x6
A|---------------------------|
E|---------------------------|

Outro:

e|--------------------------------------------------------|
B|--------------------------------------------------------|
G|--------------------------------------------------7-7-9-|
D|-9-9--7-9----------9-------------9-9--7-9---------7-7-9-|
A|----------9--9-9----9---------------------9--9-9--5-5-7-|
E|---------------------12---------------------------------|
                     (let ring...)

e|-------------------------------------------------|
B|-------------------------12-12-12----------------|
G|-7-7-7-7-7-7-7-7-7-7-9---11-11-11-9-9-9-7-7-7-9--|
D|-7-7-7-7-7-7-7-7-7-7-9---9--9--9--7-7-7-5-5-5-7--|
A|-5-5-5-5-5-5-5-5-5-5-7---------------------------|
E|-------------------------------------------------|

comments
We did not receive enough feedback on this tab! Please rate:
print report bad tab
1 2 3 4 5
I want to post or [tab]
guest
You may want to rate the tab now too:
select rating
Please do not post tabs as comments. Select "correction" instead!