Oops, an error
Loading. Please wait.

Colony Bass Tab

version 2
version 2

Whole song

Interactive

1,354 views 6 this week
1 commentread comment
1 2 3 4 5
please rate
add to favorites
launch autoscroll
font size
0
reset
guitar tuner
Autoscroll
slow
fast
+/-
esc
set tempo
stop
Help us to improve Ultimate-Guitar.com Take our survey!
×
Author
Difficulty
intermediate
Riff Intro:

G|--------------------------------| 
D|--------------------------------| 
A|--------------------------------| 
E|-0~-----------------------------|

Riff 1:

G|-------------------------------------------|
D|-------------------------------------------|
A|-------------------------------------------|
E|-0-10-12-0-10-12-0-10-12-0-10-12-----------| 

Riff 2:

G|-------------------------------------------|
D|-------------------------------------------| 
A|-------------------------------------------|
E|-12-12-12-10-12-12-12-10-12-12-12-5~-------|

Riff 3:

G|-------------------------------------------|
D|-------------------------------------------| 
A|-------------------------------------------|
E|-12-12-12-10-12-12-12-10-12-12-12-0~-------|

Riff 4:

G|-------------------------------------------|
D|-------------------------------------------| 
A|-------------------------------------------|
E|-0-10-12-0-10-12-12-0-12-12-12-15----------| 

Riff Intro (x2)
Riff 1 (x24)
Riff 2 (x1)
Riff 3 (x1)
Riff 4 (x1)
Riff 3 (x1)

Riff 1 (x1)
Riff 2 (x1)
Riff 1 (x3)

Riff 2 (x1)
Riff 1 (x10)

---2:58---

Riff 4 (x1)
Riff 3 (x1)
Riff 2 (x1)
Riff 3 (x1)
Riff 2 (x1)
Riff 3 (x1)
Riff 2 (x1)
Riff 3 (x1)

---3:26---

Riff 2 (x1)
Riff 3 (x1)
Riff 2 (x1)
Riff 3 (x1)
Riff 1 (x2) - let the last note ring out

This is my first bass tab.  Sorry I couldn't use terms like the "chorus" and 
"verse 1" etc ...  :-/
Suggest correction
Give kudos to tab author, rate the tab!
1 2 3 4 5
comments
print report bad tab
1 comment total.
0 reply
Pini-Glock 730 wrote on January 22 2014, 07:21 am

Nice tab man! Sounds just like the version on the album Closer! The other tab was just not good enough!

Worth 5 stars to me!

guest
You may want to rate the tab now too:
select rating
Please do not post tabs as comments. Select "correction" instead!