Oops, an error
Loading. Please wait.

Dead Souls Bass Tab

version 2
version 2

Whole song

Interactive

9,616 views 9 this week
1 commentread comment
1 2 3 4 5
please rate
add to favorites
launch autoscroll
font size
0
reset
guitar tuner
Autoscroll
slow
fast
+/-
esc
set tempo
stop
Help us to improve Ultimate-Guitar.com Take our survey!
×
Contributor
Difficulty
novice
Standard Tuning

Intro/verse: Alternates between the two:
|--------3----------|---------3-5---------------------|
|-555555--5-3333333-|--555555-----3333333-------------|  Repeat
|-------------------|---------------------------------|
|-------------------|---------------------------------|

Chorus
|--------------------------------|---------------------------------------|
|-10-10-10-88-8-8----------------|--10-10-10-88-8-8-8--------------------|
|-----------------8-10-10-8------|--------------------10-10-88-6---------|
|---------------------------10-8-|-Last time-----------------------------|

3:25
ALternates between these with slight modifications
|-------------3-5-3-5-3------------3-10-3-10-3-------------|
|-555555555555---------555555555555------------------------|
|----------------------------------------------------------|
|----------------------------------------------------------|

3:54 (lead into chorus)
|---33---5/8-10-------------------|
|-5---55--------------------------|
|---------------------------------|
|---------------------------------|


4:13
Play in triplets
(xno.) for sake of readability
|--10(x10)/12(x3)-13(x3)-12(x3)\10(x3)\8(x10)/12(x3)-13(x3)-12(x6)-|
|------------------------------------------------------------------|
|------------------------------------------------------------------|
|------------------------------------------------------------------|

4:30 onwards
Play in triplets
|-10-10-10-10-10-10-etc.--------|
|-------------------------------|
|-------------------------------|
|-------------------------------|
comments
We did not receive enough feedback on this tab! Please rate:
print report bad tab
1 2 3 4 5
1 comment total.
0 reply
GingerElvis 42 wrote on May 8 2016, 06:58 am

great tab joy division rules!!!

I want to post or [tab]
guest
You may want to rate the tab now too:
select rating
Please do not post tabs as comments. Select "correction" instead!