Oops, an error
Loading. Please wait.

Dead Souls Tab

version 2
version 2

Whole song

Interactive

34,650 views 114 this week
3 commentsread comments
1 2 3 4 5
x 10
add to favorites
launch autoscroll
font size
0
reset
how to read this tab
guitar tuner
Autoscroll
slow
fast
+/-
esc
set tempo
stop
Help us to improve Ultimate-Guitar.com Take our survey!
×
Intro part
 Fill 1
e|---------------------------------- --------|
B|-------------------------------------------|
G|--8h10---8--10-10~-8h10---8--10-10~--10-10-|
D|-------------------------------------------|
A|-------------------------------------------|
E|-------------------------------------------|
Fill 2
|-----------------------------------------------------|
|-----------------------------------------------------|
|-----------------------------------------------------|
|-8--8--8--8--8--8--8-10---10--10--10--10--10--10--10-|
|-----------------------------------------------------|
|-----------------------------------------------------|

These fills if you wish are not exact,
merely a template or guideline, 
so add extra C's and Bb's where it seems appropriate

Then played is a Bb5 chord and a C5 chord, 
which i think have the root on the A string

e|--------------------------------------------|
B|--------------------------------------------|
G|-3----3--3--3--3--3-5---5--5--5--5--5--5--5-|
D|-3----3--3--3--3--3-5---5--5--5--5--5--5--5-|
A|-1----1--1--1--1--1-3---3--3--3--3--3--3--3-|
E|--------------------------------------------|

And prehaps pick the chords like so sometimes..

e|--------------------------------|
B|--------------------------------|
G|-----3-----3---3-----5----5---5-|
D|-----------3---3----------5---5-|
A|--1-----1----1----3----3------3-|
E|--------------------------------|


And after a bit go back to fill 2, then... the dynamics

e|-----------------------------------------------|
B|-----------------------------------------------|
G|--10-10-10-xx--8--8--x-5--5-x--5-5-5--3--5--5--|
D|--10-10-10-xx--8--8--x-5--5-x--5-5-5--3--5--5--|
A|--8--8--8--xx--7--7--x-3--3-x--3-3-3--5--3--3--|
E|-----------------------------------------------|


Then through the singing its the same rythm as before
 but slightly more up strumed, with the Bb and the C but use these


e|-3--3-x-3--3-x--5--5-x-5--5--|
B|-3--3-x-3--3-x--5--5-x-5--5--|
G|-3--3-x-3--3-x--5--5-x-5--5--|
D|-3--3-x-3--3-x--5--5-x-5--5--|
A|-----------------------------|
E|-----------------------------|

I think these are all the parts,
 and figure out when and where they come in on the record to the song



************************************

| x  Dead note
| h  Hammer-on
| ~  Vibrato

************************************
Suggest correction
comments
print report bad tab
3 comments total.
0 reply
jimsnx 10 Apr 23, 2014 12:16 PM, edited on April 24 2014, 05:59 pm

this plays also in the intro|--------------------------------------------||--------------------------------------------||--------------------------------------------||----33---3------5-------3-----3----3---------||-1----1----1--3---3--1--- 1-----1--------------||--------------------------------------------|
i also play the intro in the G------3---5----3-55-

0 reply
McCandlessJohnJ 10 Jul 29, 2014 08:27 AM

didn't like this contribution

0 reply
jimsnx 10 Oct 22, 2014 12:08 PM, edited at 12:10 pm

|-------------------------------------------||-------------------------------------------||-------------------------------------------||----- 3----------3-------5------- 3------ 3-||---1------ 1 -----1------ 1------- 1-||-------------------------------------------|

guest
You may want to rate the tab now too:
select rating
Wanna post a correction for this tab? Suggest correction