Oops, an error
Loading. Please wait.

Decades Bass Tab

version 1
version 1

Whole song

Interactive

4,705 views 6 this week
1 commentread comment
1 2 3 4 5
please rate
add to favorites
launch autoscroll
font size
0
reset
guitar tuner
Autoscroll
slow
fast
+/-
esc
set tempo
stop
Help us to improve Ultimate-Guitar.com Take our survey!
×
Author
Difficulty
novice
Standard Tuning


0:14 - 0:23
|---------------------------|
|--5-7-0------5-7-----------|
|-----------------7---------|
|---------------------------|

0:24 - 1:54
|------------2p-----2p-----2p------|
|--5-7-0--0-0--0-0-0--0-0-0--0-0-0-|
|----------------------------------|
|----------------------------------|

|------------------------------------------|
|--5-7-------------------------------------|
|------7--7-7-8p-7-7-7-8p-7-7-7-8p-0-0-0---|
|------------------------------------------|

1:54 onwards (with a slight changes which are easy to pick up on)
m = slightly muted
|-----------------------------------------------------------------|
|-5-7-0-0m--0m-0m--0m-0m-0m-0m-5-7--------------------------------|
|----------------------------------7-7m--7m-7m--7m-7m-7m-7m-------|
|-----------------------------------------------------------------|
Suggest correction
Give kudos to tab author, rate the tab!
1 2 3 4 5
comments
print report bad tab
1 comment total.
0 reply
swave75 382 wrote on July 20 2012, 11:10 pm

Great tab!!! My favorite Joy Division song!

guest
You may want to rate the tab now too:
select rating
Wanna post a correction for this tab? Suggest correction