Oops, an error
Loading. Please wait.

Decades Chords

version 1
version 1

Whole song

Interactive

15,892 views 33 this week
1 commentread comment
1 2 3 4 5
accurate
x 9
add to favorites
launch autoscroll
font size
0
reset
transpose
0
reset
display chords
guitar tuner
Autoscroll
slow
fast
+/-
esc
set tempo
stop
Help us to improve Ultimate-Guitar.com Take our survey!
×
Decades - Joy Division - Closer

This is the greatest Closer of all time transcribed for guitar

Chords	-	Dm(xx0231)
C (x32010)
Bm(x24432)
Bb(x1333x)

Play the Dm and C like this until the chorus...(listen to song for 
exact timing)

e|---1--1--1--1--1---0-0-0-0-0--8-----------------|
B|---3--3--3--3--3---1-1-1-1-1--------------------|
G|---2--2--2--2--2---0-0-0-0-0--------------------|
D|------------------------------------------------|
A|------------------------------------------------|
E|------------------------------------------------|

Verse 1

Dm					     	C
Here are the young men, the weight on their shoulders,
Dm					     C
Here are the young men, well where have they been?
Dm					C
We knocked on the doors of Hell's darker chamber,
Dm				       	C
Pushed to the limit, we dragged ourselves in,
Dm				        C
Watched from the wings as the scenes were replaying,
Dm				    C
We saw ourselves now as we never had seen.
Dm				  C
Portrayal of the trauma and degeneration,
Dm				   C
The sorrows we suffered and never were free.

Chorus

Here is what is played in the background

e|----1-3----1-3---1-3---1-3---1-3---1-3---1--3---1-3---1-3---1--3---|
B|--3------3-----3-----3-----3-----1-----1------1-----1-----1--------|
G|-------------------------------------------------------------------|
D|-------------------------------------------------------------------|
A|-------------------------------------------------------------------|
E|-------------------------------------------------------------------|

e|----1-3----1-3---1-3---1-3---1-3---1-3---1--3---1-3---1-3---1--3---|
B|--0------0-----0-----0-----0---------------------------------------|
G|---------------------------------3-----3------3-----3-----3--------|
D|-------------------------------------------------------------------|
A|-------------------------------------------------------------------|
E|-------------------------------------------------------------------|


Dm                 
Where have they been?
C
Where have they been?
Bm
Where have they been?
Bb
Where have they been?

Verse 2 (Same Chords as Verse 1)

Weary inside, now our heart's lost forever,
Can't replace the fear, or the thrill of the chase,
Each ritual showed up the door for our wanderings,
Open then shut, then slammed in our face.


Chorus

Dm                 
Where have they been?
C
Where have they been?
Bm
Where have they been?
Bb
Where have they been?

Dm  C  Bm  Bb  until End


Suggest correction
comments
print report bad tab
1 comment total.
0 reply
satja 78 wrote on October 1 2010, 09:08 am

I think it's G instead of Bm.

guest
You may want to rate the tab now too:
select rating
Wanna post a correction for this tab? Suggest correction