Oops, an error
Loading. Please wait.

Digital Bass Tab

version 1
version 1

Whole song

Interactive

25,963 views 51 this week
1 commentread comment
1 2 3 4 5
x 9
add to favorites
launch autoscroll
font size
0
reset
guitar tuner
Autoscroll
slow
fast
+/-
esc
set tempo
stop
Help us to improve Ultimate-Guitar.com Take our survey!
×
Author
Difficulty
novice
Song:  Digital
Artist: Joy Division
Album: Substance
originally Tabbed by: Michael Blum
blum_michael2@hotmail.com

This song is generally pretty simple. It's basically Riff 1 (with
a few variations) throughout.  I've included two variations to Riff 1.

Riff 1
G ---------------------------------------------------|
D ---------------------------------------------------|
A ---5-4----4-5-4-5-4-5-4----------------------------|
E -------55------------------------------------------|

Riff 2
G ---------------------------------------------------|
D -------------------776-----------------------------|
A ---5-4----4-5-4-5----------------------------------|
E -------55------------------------------------------|

Riff 3
G ---------------------------------------------------|
D -------------------777-----------------------------|
A ---5-4----4-5-4-5----------------------------------|
E -------55------------------------------------------|

Open the song with Riff 1 and play 4X.

After that, it's easier (and makes for a shorter tab) to listen to the
song and learn where variations are added.  There seems to be a great
number of variant riffs, and the song really sounds fine wherever you
decide to add them, so have some freedom with it.

"There is only one basic human right, the right to do as you damn well
please. And with it comes the only basic human duty, the duty to take
the consequences." -- PJ O'Rourke
Suggest correction
comments
print report bad tab
1 comment total.
0 reply
IbanezBassman 140 Jul 20, 2008 08:01 AM

Riff ?
G -----------------------|
D -------------------676-|
A ---5-4----4-5-4-5------|
E -------55--------------|

There's also a bit where it goes that. Great song, great tab

guest
You may want to rate the tab now too:
select rating
Wanna post a correction for this tab? Suggest correction