Oops, an error
Loading. Please wait.

Disorder Bass Tab

version 1
version 1

Whole song

Interactive

118,933 views 384 this week
1 commentread comment
1 2 3 4 5
excellent!
x 29
add to favorites
launch autoscroll
font size
0
reset
guitar tuner
Autoscroll
slow
fast
+/-
esc
set tempo
stop
Help us to improve Ultimate-Guitar.com Take our survey!
×
"Disorder" by Joy Division (from the album "Unknown Pleasures")

        
[Pattern I]

    q   e e e e e e    q   e q   e e e   q   e e e e e e   q   e q   e e e     
G-|-8---8-8-8-8-8-8--|-----------------|-----------------|--------------------|
D-|------------------|-5---5-5---5-5-5-|-----------------|-5---5-5---5-5-5----|
A-|------------------|-----------------|-----------------|--------------------|
E-|------------------|-----------------|-6---6-6-6-6-6-6-|--------------------|


[Pattern II]
                                                                                        
    q   e e e e e e    e e e q   e e e   q   e e e e e e   q   e q   e e e     
G-|-8---8-8-8-8-8-8--|-7-8-7-----------|-----------------|--------------------|
D-|------------------|-------5---5-5-5-|-----------------|-5---5-5---5-5-5----|
A-|------------------|-----------------|-----------------|--------------------|
E-|------------------|-----------------|-6---6-6-6-6-6-6-|--------------------|


[Pattern III]
                                                                                          
    q   e e e e e e    e e e q   e e e   q   e e e e e e   e e e q   e e e     
G-|-8---8-8-8-8-8-8--|-7-8-7-----------|-----------------|--------------------|
D-|------------------|-------5---5-5-5-|-----------------|-----------5-5-5----|
A-|------------------|-----------------|-----------------|-6-5-3--------------|
E-|------------------|-----------------|-6---6-6-6-6-6-6-|-------3------------|
                                                                               


[Intro]         drums (4 bars) 
                Pattern I   (x4)  -- guitar enters 3rd time --

[1st Verse]     Pattern I   (x4)

[Chorus]        Pattern II
                Pattern III (x3)
                Pattern I   (x2)

[2nd Verse]     Pattern I   (x4)

[Chorus]        Pattern II  
                Pattern III (x4)
                Pattern I

[3rd Verse]     Pattern I   (x4)

last sentence repeated twice :  Pattern I (x2)


[Outro]
     
    e e e e e e e e    e e e e e e e e   e e e e e e q     q   q   q   q   
G-|------------------|-----------------|-----------------|--------------------|
D-|------------------|-----------------|-----------------|--------------------|
A-|------------------|-----------------|-1-1-1-1-1-1-1-/-|-2-/-3-/-4-/-5-/----|
E-|-3-3-3-3-3-3-3-3--|-3-3-3-3-3-3-3-3-|-----------------|--------------------|  
         
     e e e e e e e e    e e e q   e e e   [x3]  
G-||------------------|-----------------||
D-||------------------|-----------------||
A-||-5h6-6-6-5h6-6-6--|-5h6-6-6-6-6-6-6-|| 
E-||------------------|-----------------||                                                   

    e e e e e e e e    e e e e e e q     
G-|------------------|-----------------|
D-|------------------|-----------------|
A-|-5h6-6-6-5h6-6-6--|-5h6-6-6-5h6-6---|
E-|------------------|-----------------| 

drums end.



************************************

| h  Hammer-on
| /  Slide up
| q  quarter     
| e   8th                

************************************
Suggest correction new What's this?
You can suggest a correction to this tab. Community and Mods will review your correction and vote to approve or reject it.
comments
print report bad tab
1 comment total.
+5 reply
bennyshambles78 3,259 wrote on December 31 2012, 04:46 pm

Great job, but may I make a few suggestions? Although there's a couple of passes where Peter Hook plays a couple passes where it's very close to what your tab, here's how I think Pattern III should be played for the majority of the song:


q e e e e e e e e e q e e e q e e e e e e e e e q e e e
G-|-8---8-8-8-8-8-8--|-7-8-7-----------|-----------------|--------------------|
D-|------------------|-------5---5-5-5-|-----------------|-----------5-5-5----|
A-|------------------|-----------------|-----------------|-5-3----------------|
E-|------------------|-----------------|-6---6-6-6-6-6-6-|-----6-0------------|


and the Outro should be:

e e e e e e e e e e e e e e e e
G-|------------------|-----------------|
D-|------------------|-----------------|
A-|------------------|-----------------|
E-|-1-1-1-1-1-1-1-1--|-1-1-1-1-1-1-1-1-|
e e e e e e q q q q q q
G-||-----------------|--------------------|
D-||-----------------|--------------------|
A-||-----------------|--------------------|
E-||-6-6-6-6-6-/7-/8-|/9-/-10/-11/-12-12~-|

e e e e e e e e e e e q e e e [x4]
G-||------------------|-----------------||
D-||------------------|-----------------||
A-||------------------|-----------------||
E-||-10/11/12-10/11/12|-10/11/12--12-12~||


Otherwise, this is an excellent bass tab for "Disorder" and I hope my corrections/suggestions helped. Cheers.

guest
You may want to rate the tab now too:
select rating
Please do not post tabs as comments. Select "correction" instead!