Oops, an error
Loading. Please wait.

Disorder Bass Tab

version 2
version 2

Whole song

Interactive

8,733 views 12 this week
no commentswrite comment
1 2 3 4 5
please rate
add to favorites
launch autoscroll
font size
0
reset
guitar tuner
Tab Pro tools
  • play this tab
  • loop segment
  • change instrument
  • show fretboard
  • metronome
×
Best way to learn
"Disorder"
Autoscroll
slow
fast
+/-
esc
set tempo
stop
Contributor
Difficulty
novice
========    === ========
Disorder by Joy Division
========    === ========

This is my first tab, and I just noticed that the other guy had made one or two mistakes. So here we go!

Intro:

G:-8--8-8-8-8-8-8-0--0-0--0-0-0------------------0-----0---|
D:---------------------------------------------0-----0---0-|
A:------------------------------1--1-1-1-1-1-1-------------|
E:---------------------------------------------------------|

G:-8--8-8-8-8-8-8-0--0-0--0-0-0----------------0--0-0--0-0-|
D:---------------------------------------------------------|
A:------------------------------1--1-1-1-1-1-1-------------|
E:---------------------------------------------------------|

Verse:

Repeat the intro four times, then just before the guitar section:

G:-8--8-8-8-8-8-8-7-8-7-0--0-0-0-|
D:-------------------------------|
A:-------------------------------|
E:-------------------------------|

Guitar Section:

G:----------------0--0-0--0-0-0-------------------------------|
D:------------------------------1--1-1-1-1-1-1-0-1-0----------|
A:-1--1-1-1-1-1-1---------------------------------------------|
E:---------------------------------------------------3--3-3-3-|

G:------------------------------------------------------------|
D:----------------0-------------------------------------------|
A:-1--1-1-1-1-1-1---3-1----------1--1-1-1-1-1-1---------------|
E:----------------------0--0-0-0----------------3--3-3--3-3-3-|

Verse:

Just play this four times.

G:----------------0--0-0--0-0-0-------------------------------|
D:------------------------------1--1-1-1-1-1-1-0-1-0----------|
A:-1--1-1-1-1-1-1---------------------------------------------|
E:---------------------------------------------------3--3-3-3-|

Then:

G:-8--8-8-8-8-8-8-7-8-7-0--0-0-0-|
D:-------------------------------|
A:-------------------------------|
E:-------------------------------|

Guitar Section:

G:----------------0--0-0--0-0-0-------------------------------|
D:------------------------------1--1-1-1-1-1-1-0-1-0----------|
A:-1--1-1-1-1-1-1---------------------------------------------|
E:---------------------------------------------------3--3-3-3-|

G:------------------------------------------------------------|
D:----------------0-------------------------------------------|
A:-1--1-1-1-1-1-1---3-1----------1--1-1-1-1-1-1---------------|
E:----------------------0--0-0-0----------------3--3-3--3-3-3-|

Then I think there's a third verse, then it goes to:

G:------------------------------------------------------|
D:------------------------------------------------------|
A:------------------------------------------------------|
E:-3--3-3-3-/4-/5-/6-/7-9-10-----7-9-10--7-9-10--7-9-10-|

G:----------------------|
D:----------------------|
A:----------------------|
E:-7-9-10-7-9-10-7-9-10-|

And that's basically the whole song! Enjoy

http://white-canvas.bebo.com
comments
We did not receive enough feedback on this tab! Please rate:
print report bad tab
1 2 3 4 5
I want to post or [tab]
guest
You may want to rate the tab now too:
select rating
Please do not post tabs as comments. Select "correction" instead!