Oops, an error
Loading. Please wait.

Disorder Bass Tab

version 3
version 3

Whole song

Interactive

3,733 views 3 this week
no commentswrite comment
1 2 3 4 5
2 more votes to show rating
add to favorites
launch autoscroll
font size
0
reset
guitar tuner
Autoscroll
slow
fast
+/-
esc
set tempo
stop
Help us to improve Ultimate-Guitar.com Take our survey!
×
Author
Difficulty
novice
Standard Tuning

   0
   .  gives the grungey sound
   .
   3

"Verse"
|-8-88-88-88-7-8-7--0-00-00-------------0-00-00-------|
|-----------------------------------------------------|
|---------------------------1-11-11-111---------------|
|---------------------------------------3-33-33-------|

"Chorus"
0:51 - 1:13  then  1:47 - 2:15
|-8-88-88-888-7-10-8-0-00-00------------0-00-00-----|
|---------------------------------------------------|
|---------------------------1-11-11-111-------------|
|---------------------------------------3-33-33-----|

|-8-88-88-88-7-8-7--0-00-00---------------------------|
|-----------------------------------------------------|
|---------------------------1-11-11-11-0-1-0----------|
|--------------------------------------------3-0-00---|

(For second bar, sometimes ends on --------------------------|
                                   ------------2-------------|
                                   -1-11-11-11--1------------|
                                   ---------------3-0-00-----|  )

2:55 - 3:12
|---------------------------------------------------|
|---------------------------------------------------|
|-----------------4/8\4/8\4/8\4/8\4/8---------------|
|-1-1-1-1-1-1-1-1-----------------------------------|
Suggest correction
Give kudos to tab author, rate the tab!
1 2 3 4 5
comments
print report bad tab
guest
You may want to rate the tab now too:
select rating
Wanna post a correction for this tab? Suggest correction