Oops, an error
Loading. Please wait.
We have an official Disorder tab made by UG professional guitarists. Check out the tab »
×

Disorder bass

version 4
version 4

Whole song

Interactive

6,424 views 138 this week
1 commentread comment
1 2 3 4 5
x 8
add to favorites
×
Save as Personal and add changes to this tab that will be seen only by you. Learn more ›
×
You can save this tab as Personal to edit and correct it or add notes. All changes will be seen only by you. Learn more »
launch autoscroll
font size
0
reset
guitar tuner
backing track
0:00
0:00
edit
Autoscroll
slow
fast
+/-
esc
set tempo
stop
About this tab version
The one with a 5 star rating has some parts that are wrong. The whole outro for example. Also the note being strummed before the outro is an F, not a G. I believe my tab is more accurate. Was this info helpful? Yes No
Joy Division - Disorder
Track 1 from the album "Unknown Pleasures" (Factory Records 1979).

Tabbed by Isaac Murguia, January 2016.
Originally uploaded to Ultimate-Guitar.com
Contact: www.youtube.com/user/Goadiroth

INTRO/VERSE 1:
G|-8-888888----------|-------------------|      |-8-888888-787------|
D|----------5-55-555-|----------5-55-555-|      |-------------5-555-|
A|-------------------|-------------------|      |-------------------|
E|-------------------|-6-666666----------| [x8] |-------------------|


CHORUS 1:
G|-------------------|-8-888888-787------|-------------------|-8-888888-787------|
D|----------5-55-555-|-------------5-555-|---------------555-|-------------5-555-|
A|-------------------|-------------------|----------53-------|-------------------|
E|-6-666666----------|-------------------|-6-666666---60-----|-------------------|

G|-------------------|-8-888888-787------|-------------------|-8-888888----------|
D|---------------555-|-------------5-555-|---------------555-|----------5-55-555-|
A|----------53-------|-------------------|----------53-------|-------------------|
E|-6-666666---60-----|-------------------|-6-666666---60-----|-------------------|


VERSE 2:
G|-------------------|-8-888888----------|      |-------------------|-8-888888-787------|
D|----------5-55-555-|----------5-55-555-|      |----------5-55-555-|-------------5-555-|
A|-------------------|-------------------|      |-------------------|-------------------|
E|-6-666666----------|-------------------| [x5] |-6-666666----------|-------------------|


CHORUS 2:                                |                 [x3]                  |
G|-------------------|-8-888888-787------|-------------------|-8-888888-787------|
D|----------5-55-555-|-------------5-555-|---------------555-|-------------5-555-|
A|-------------------|-------------------|----------53-------|-------------------|
E|-6-666666----------|-------------------|-6-666666---60-----|-------------------|


VERSE 3:
G|-------------------|-8-888888----------|
D|---------------555-|----------5-55-555-|
A|----------53-------|-------------------|
E|-6-666666---60-----|-------------------|

G|-------------------|-8-888888----------|      |-------------------|--------------------|
D|----------5-55-555-|----------5-55-555-|      |----------5-55-555-|--------------------|
A|-------------------|-------------------|      |-------------------|--------------------|
E|-6-666666----------|-------------------| [x6] |-6-666666----------|-1111-1111-1111-111-|


OUTRO:
G|--------------------------|-----------------------------------------|
D|--------------------------|-----------------------------------------|
A|--------------------------|-----------------------------------------|
E|-1/2-22-33-44-55-66-77-88-|-9/12-1212--9/12-1212--9/12-1212--121212-|

                                     [x2]
G|---------------------------------------|--------------------------------------------|
D|---------------------------------------|--------------------------------------------|
A|---------------------------------------|--------------------------------------------|
E|-9/12-1212--9/12-1212--9/12-1212--1212-|-9/12-1212--9/12-1212--9/12-1212--9/12-1212-|


End. Please rate! :D

            
            
Suggest correction
Creating personal tab
Creating personal tab
You can edit any tab online and save it as your Personal.

You can edit, replace or remove any tab part or add personal notes – all changes will be seen only by you.

Personal tabs can be accessed anytime from any device, even offline.
Learn more »
comments
print report bad tab
1 comment total.
0 reply
greg3d 10 Aug 24, 2017 02:52 AM

Very well! This tab helped me a lot!

guest
You may want to rate the tab now too:
select rating
Wanna post a correction for this tab? Suggest correction