Oops, an error
Loading. Please wait.

Exercise One Bass Tab

version 1
version 1

Whole song

Interactive

2,925 views 12 this week
1 commentread comment
1 2 3 4 5
1 last vote to show rating
add to favorites
launch autoscroll
font size
0
reset
guitar tuner
Autoscroll
slow
fast
+/-
esc
set tempo
stop
Help us to improve Ultimate-Guitar.com Take our survey!
×
-------------------------------------------------------------------------------
			     Exercise One - Joy Division
-------------------------------------------------------------------------------

Tabbed By : Gallagher2006

Tuning: Standard

Intro: lay softly and listen to song for timing

G|------------------------------|
D|------------------------------|
A|------------------------------|
E|--0--3--0--3--0--3h-5--5------|

Verse

G|---------------------------------------------------------------------------|
D|---------------------------------------------------------------------------|
A|-----------------------------------2-----------------3-----------------2---|
E|--0--3--0--3--0--5---0--3--0--3--0----0--3--0--3--0-----0--3--0--3--0------|

Play over riff again

G|------------------------------|
D|------------------------------|
A|------------------------------|
E|--0--3--0--3--0--3h-5--5------|

Verse

G|---------------------------------------------------------------------------|
D|---------------------------------------------------------------------------|
A|-----------------------------------2-----------------3-----------------2---|
E|--0--3--0--3--0--5---0--3--0--3--0----0--3--0--3--0-----0--3--0--3--0------|

Play over riff again

G|------------------------------|
D|------------------------------|
A|-----------------------2------|
E|--0--3--0--3--0--3h-5---------|

End on b

Pretty easy song, and there it is ;)
Suggest correction
Give kudos to tab author, rate the tab!
1 2 3 4 5
comments
print report bad tab
1 comment total.
0 reply
FAC-10000 11 Aug 07, 2014 04:52 PM

Lack of accuracy.

guest
You may want to rate the tab now too:
select rating
Wanna post a correction for this tab? Suggest correction