Oops, an error
Loading. Please wait.

From Safety To Where Bass Tab

4,613 views 6 this week
no commentswrite comment
1 2 3 4 5
excellent!
x 3
add to favorites
launch autoscroll
font size
0
reset
guitar tuner
Tab Pro tools
  • play this tab
  • loop segment
  • change instrument
  • show fretboard
  • metronome
×
Best way to learn
"From Safety To Where"
Autoscroll
slow
fast
+/-
esc
set tempo
stop
"From Safety to Where" by Joy Division (from the album "Substance")
===================================================================

transcribed by Gilles Velay

Any comments, corrections or suggestions ?
Please email me at gvelay@club-internet.fr

Notation :
	w : whole
	h : half
	q : quarter	/ : slide up
	e : 8th		h : hammer on
	s : 16th


1st Verse
=========
    e   s s e   s s s s s e   s s s    e   s s e   s s s s s e   s s s    [x2]
G-||--------9---9-9-7---7------------|---------9---9-9-7-------------------||
D-||------------------9---9---7-7-7--|-------------------9-7---------------||
A-||7---7-7--------------------------|-7---7-7---------------10--101010----||
E-||---------------------------------|-------------------------------------||

    e   s s e   s s s s s e   s s s    e   s s e   s s s s s s  s s e
G-|---------9---9-9-7---7------------|---------9---9-9-7--------------------|
D-|-------------------9---9---7-7-7--|-------------------9-7----------------|
A-|-7---7-7--------------------------|-7---7-7---------------10-7-5-3-/-----|
E-|----------------------------------|--------------------------------------|


Pre-Chorus
==========                                                                  
     e   s s e   s s e   s e   s s s    e   s s e   s s s s s s s s e 
G-||---------9---9-9-------9---9-9-9-||-------9-9---9---9---9---9---9------|
D-||---------------------------------||------------------------------------|
A-||-7---7-7---------7---7-----------||-7---7-7-7-----7---7---7---7--------|
E-||---------------------------------||------------------------------------|



Chorus
======
    e   s s e   s s s s s  e   s s s   e   s s e   s s s s s  s+q    
G-|/11--111112--1212111111-9---9-9-9-|-11--111112--1212111211-7-------------|
D-|----------------------------------|--------------------------------------|
A-|----------------------------------|--------------------------------------|
E-|----------------------------------|--------------------------------------|

    e   s s e   s s s s s  e   s s s   e   s s e   s s s s s  e   s s s
G-|/11--111112--1212111111-9---9-9-9-|-11--111112--1212111211-7---7-7-7-----|
D-|----------------------------------|--------------------------------------|
A-|----------------------------------|--------------------------------------|
E-|----------------------------------|--------------------------------------|


Bridge
======
    h+q+s                      s s s   w                             
G-|-7--------------------------7-7-7-|-7------------------------------------|
D-|----------------------------------|--------------------------------------|
A-|----------------------------------|--------------------------------------|
E-|----------------------------------|--------------------------------------|


2nd Verse (same as first one)
=========

Pre-Chorus (same as first one)
==========

Chorus (same as first one)
======

Bridge
======
    h+q+s                      s s s   h+q+s                         s s s
G-|-7--------------------------7-7-7-|-7-----------------------------7-7-7--|
D-|----------------------------------|--------------------------------------|
A-|----------------------------------|--------------------------------------|
E-|----------------------------------|--------------------------------------|

    e   s s e   s s  e   s s s s s s [x3]                       
G-||7-----7--------------------7-7-7-||
D-||----10--10--8-10-7---7-7-7-------||
A-||---------------------------------||
E-||---------------------------------||

    h+q+s                      s s s   w                             
G-|-7--------------------------7-7-7-|-7------------------------------------|
D-|----------------------------------|--------------------------------------|
A-|----------------------------------|--------------------------------------|
E-|----------------------------------|--------------------------------------|


Chorus  (same as first one but the first 2 bars are played 3 times
======   instead of once)

The last note is a D played on the G string.

comments
We did not receive enough feedback on this tab! Please rate:
print report bad tab
1 2 3 4 5
I want to post or [tab]
guest
You may want to rate the tab now too:
select rating
Please do not post tabs as comments. Select "correction" instead!