Oops, an error
Loading. Please wait.

Glass Tab

3,527 views 3 this week
no commentswrite comment
1 2 3 4 5
2 more votes to show rating
add to favorites
launch autoscroll
font size
0
reset
how to read this tab
guitar tuner
Autoscroll
slow
fast
+/-
esc
set tempo
stop
Help us to improve Ultimate-Guitar.com Take our survey!
×
Author
====================
Glass - Joy Division
====================
Album: Still (1981)

Intro:
                                             6x
e|-------------------------------------------------|
B|-------------------------------------------3--3--|
G|--/3--2-------3-2-------/3--2-------3-2----2--2--|
D|---------1--------1------------1--------1--0--0--|
A|-------------------------------------------------|
E|-------------------------------------------------|

                                             7x
e|-------------------------------------------------|
B|-------------------------------------------3--3--|
G|------2--3------2-3---------2--3------2-3--2--2--|
D|--/1----------1---------/1----------1------0--0--|
A|-------------------------------------------------|
E|-------------------------------------------------|


Riff:                                         Bridge:
                                      
e|--0-0---7-7---7--7-7--|        e|--------  |-----------|
B|--0-0---x-x---x--x-x--|        B|--3--3--  |--4-----3--|
G|--4-4---4-4---4--4-4--| 16x >> G|--2--2--  |--3-----2--|
D|--5-5---5-5---5--5-5--|        D|--0--0--  |--1-----0--|
A|----------------------|        A|--------  |-----------|
E|----------------------|        E|--------  |-----------|


Riff 2:

e|--12-12--|   |--5-5----12-12--|
B|--12-12--|   |--5-5----12-12--|
G|--14-14--|   |--7-7----14-14--|
D|---------|   |----------------|
A|---------|   |----------------|
E|---------|   |----------------|
Suggest correction
Give kudos to tab author, rate the tab!
1 2 3 4 5
comments
print report bad tab
guest
You may want to rate the tab now too:
select rating
Wanna post a correction for this tab? Suggest correction