Oops, an error
Loading. Please wait.

I Remember Nothing Bass Tab

2,786 views 12 this week
no commentswrite comment
1 2 3 4 5
2 more votes to show rating
add to favorites
launch autoscroll
font size
0
reset
guitar tuner
Autoscroll
slow
fast
+/-
esc
set tempo
stop
Help us to improve Ultimate-Guitar.com Take our survey!
×
-----------------------------------------------------------------------------
			Joy Division - I Remember Nothing
-----------------------------------------------------------------------------

Tabbed By : Extra Blood
e-mail: Lenda@ofir.dk

Possibly on of the easiest song you'll ever encounter!

=============================================================================

Main part:

Okay, so the main part isn't anymore
complicated than this. It may vary a bit
on when you have to play this, but it is
mostly the same all the way through.

    w                                            
G-|-----------------|
D-|-----------------|
A-|-----------------|
E-|-0---------------|

Variation riffs:

02:16-02:25

    w+++++++++++++++++h+e       e e e   
G-|-----------------|-----------7-7-7-|
D-|-----------------|-----------------|
A-|-----------------|-----------------|
E-|-0---------------|-0---------------|

02:30

    h+e+e      e e   e e e e e e e e 
G-|------------7-7-|-7-7-7-7-7-7-7-7-|
D-|----------------|-----------------|
A-|----------------|-----------------|
E-|-0--------------|-----------------|

03:06-03:12

    w++++++++++++++++h+e       e e e        
G-|----------------|-----------------|
D-|----------------|-----------5-5-5-|
A-|----------------|-----------------|
E-|-0--------------|-0---------------|

04:21

    h+e+e      e e   e e e e e e e e 
G-|------------9-9-|-9-9-9-9-9-9-9-9-|
D-|----------------|-----------------|
A-|----------------|-----------------|
E-|-0--------------|-----------------|

    h+e+e      e e   e e e e e e e e 
G-|------------7-7-|-7-7-7-7-7-7-7-7-|
D-|----------------|-----------------|
A-|----------------|-----------------|
E-|-0--------------|-----------------|

=============================================================================
Suggest correction
Give kudos to tab author, rate the tab!
1 2 3 4 5
comments
print report bad tab
guest
You may want to rate the tab now too:
select rating
Wanna post a correction for this tab? Suggest correction