Oops, an error
Loading. Please wait.

Ice Age Bass Tab

version 1
version 1

Whole song

Interactive

5,423 views 9 this week
1 commentread comment
1 2 3 4 5
1 last vote to show rating
add to favorites
launch autoscroll
font size
0
reset
guitar tuner
Autoscroll
slow
fast
+/-
esc
set tempo
stop
Help us to improve Ultimate-Guitar.com Take our survey!
×
-------------------------------------------------------------------------------
			     Ice Age - Joy Division

Tabbed by: Gallagher2006

Basically the same as the guitar part, I thought I may as well tab this too!

Verse

G|----------------------------|
D|----------------------------|
A|-----8---------8--9---------|
E|---------6------------------|

Chorus

G|--------------------------------------------------------|
D|--------------------------------------------------------|
A|---1-1-1---------------1-1-1----------------------------|
E|---------4-2---1-2-4---------4-2---1-2-4----------------|

That’s pretty much it! Great song, and with a full band sounds amazing ;) 
Suggest correction
Give kudos to tab author, rate the tab!
1 2 3 4 5
comments
print report bad tab
1 comment total.
0 reply
swave75 382 Jul 20, 2012 11:15 PM

Very cool tab dude!

guest
You may want to rate the tab now too:
select rating
Wanna post a correction for this tab? Suggest correction