Oops, an error
Loading. Please wait.

Insight Tab

version 1
version 1

Whole song

9,058 views 6 this week
2 commentsread comments
1 2 3 4 5
x 3
add to favorites
launch autoscroll
font size
0
reset
how to read this tab
guitar tuner
Autoscroll
slow
fast
+/-
esc
set tempo
stop
Help us to improve Ultimate-Guitar.com Take our survey!
×
-------------------------------------------------------------------------------
                             Insight - Joy Division
-------------------------------------------------------------------------------
Tabbed by: Gallagher2006

Tuning: Standard

This whole tab is obviously Bass arranged for guitar. All Barney does 
in this song is palm mute every now and again a F#5 (244xxx), and plays 
the crazy synthesiser solo.

Intro/Verse riffs

E|--------------------------|
B|--------------------------|
G|--------------------------|
D|-11-11-11-11-11-11-11-11--|
A|-9--9--9--9--9--9--9--9---|  
E|--------------------------|

E|--------------------------------------|
B|--------------------------------------|
G|--------------------------------------|
D|-11-11-10-10-9--9--9-9-9-9--9-9-9-----|
A|-9--9--8--8--7--7--7-7-7-7--7-7-7-----|
E|--------------------------------------|

E|---------------------------------|
B|---------------------------------|
G|---------------------------------|
D|-7---7---9--9----5---5--5--5-5-5-|
A|-5---5---7--7----3---3--3--3-3-3-|
E|---------------------------------|


Here’s the riff played behind the synth solo...

e|---------------------------------------------------------------------------------|
B|---------------------------------------------------------------------------------|
G|--14--14-14-14-14-14-14-14-14-14------14-14-14-------14-14-14--------14-14-14----|
D|-/12--12-12-12-12-12-12-12-12-12--10h-12-12-12-10h12-12-12-12--10h12-12-12-12----|
A|---------------------------------------------------------------------------------|
E|---------------------------------------------------------------------------------|

e|---------------------------------------------------------------------------|
B|---------------------------------------------------------------------------|
G|--14-14-14-14--10-10--12-12--14-14-14-14--------14-14-14--------14-14-14---|
D|--12-12-12-12---8--8--10-10--12-12-12-12--10h12-12-12-12--10h12-12-12-12---|
A|---------------------------------------------------------------------------|
E|---------------------------------------------------------------------------|

e|---------------------------------------------------------------------------|
B|---------------------------------------------------------------------------|
G|-------14-14-14---14~------------------------------------------------------|
D|-10h12-12-12-12---12~------------------------------------------------------|
A|---------------------------------------------------------------------------|
E|---------------------------------------------------------------------------|

Then start at the verse again...smashin’ song =]
Suggest correction
Give kudos to tab author, rate the tab!
1 2 3 4 5
comments
print report bad tab
2 comments total.
0 reply
McCandlessJohnJ 10 Aug 14, 2013 08:17 PM

Whenever you've said the 11/9 power chord, that should be 12/10, as in:

-12-12-
-10-10-

0 reply
David-Argentina 171 Dec 19, 2014 02:35 PM

Good tab, but:
incorrect:
E|--------------------------------------|
B|--------------------------------------|
G|--------------------------------------|
D|-11-11-10-10-9--9--9-9-9-9--9-9-9-----|
A|-9--9--8--8--7--7--7-7-7-7--7-7-7-----|
E|--------------------------------------|

Correct:
E|--------------------------------------|
B|--------------------------------------|
G|--------------------------------------|
D|-12-12-11-11-9--9--9-9-9-9--9-9-9-----|
A|-10-10-9--9--7--7--7-7-7-7--7-7-7-----|
E|--------------------------------------|

but anyway, thanks for the tab.

guest
You may want to rate the tab now too:
select rating
Wanna post a correction for this tab? Suggest correction