Oops, an error
Loading. Please wait.

Love Will Tear Us Apart Bass Tab

version 1
version 1

Interactive

87,380 views 192 this week
6 commentsread comments
1 2 3 4 5
x 30
add to favorites
launch autoscroll
font size
0
reset
guitar tuner
Autoscroll
slow
fast
+/-
esc
set tempo
stop
Help us to improve Ultimate-Guitar.com Take our survey!
×
[Intro]
 
Some may think it's the guitar but I'm pretty sure it's the bass that
plays those chords on the intro :

   e e e e e e e e  
G|-9-9-9-9-9-9-9-9-|
D|-7-7-7-7-7-7-7-7-|  
A|-----------------|
E|-----------------|(x8)


[Main Riff]

   q   e q   e e e   q     e  q     e  q       q   e e e e e e  
G|-9---9-9---9-9-9-|-11----12-11----9--7-----|---------------7-|
D|-----------------|-------------------------|-9---9-9-9-9-9---|
A|-----------------|-------------------------|-----------------|
E|-----------------|-------------------------|-----------------|

   e e e e e e e e  
G|-9-9-9-9-9-9-9-9-|
D|-7-7-7-7-7-7-7-7-|
A|-----------------|
E|-----------------|


[Break Riff]

   q   e e e e e e  
G|-9---9-9-9-9-9-9-|
D|-7---7-7-7-7-7-7-| 
A|-----------------|
E|-----------------|(x8)
Suggest correction
comments
print report bad tab
6 comments total. Showing first comments.
0 reply
DANGERharajuku 10 Apr 25, 2007 12:49 AM

An ok tab.

+9 reply
mwr28 71 May 04, 2007 10:14 AM


G-|-9---9-9---9-9-9-|-11----12-11----9--7-----|---------------7-|
D-|-----------------|-------------------------|-9---9-9-9-9-9---|
A-|-----------------|-------------------------|-----------------|
E-|-----------------|-------------------------|-----------------|

e e e e e e e e
G-|-----------------|
D-|-7-7-7-7-7-7-7-7-|
A-|-----------------|
E-|-----------------|

wouldnt the main riff be better just like that??? IM PRETTY SURE THATS CORRECT

0 reply
bramster 10 Feb 02, 2008 09:49 AM

that is right

guest
You may want to rate the tab now too:
select rating
Wanna post a correction for this tab? Suggest correction