Oops, an error
Loading. Please wait.

Love Will Tear Us Apart Bass Tab

version 1
version 1

Interactive

80,660 views 186 this week
6 commentsread comments
1 2 3 4 5
accurate
x 26
add to favorites
launch autoscroll
font size
0
reset
guitar tuner
Tab Pro tools
  • play this tab
  • loop segment
  • change instrument
  • show fretboard
  • metronome
×
Best way to learn
"Love Will Tear Us Apart"
Autoscroll
slow
fast
+/-
esc
set tempo
stop
"Love Will Tear Us Apart" by Joy Division (from the album "Substance")
======================================================================

transcribed by Gilles Velay (gvelay@free.fr)

Notations 
  w : whole       e : 8th
  h : half        s : 16th
  q : quarter    +++ : tied notes


Intro
----- 
Some may think it's the guitar but I'm pretty sure it's the bass that
plays those chords on the intro :

    e e e e e e e e  
G-|-9-9-9-9-9-9-9-9-|
D-|-7-7-7-7-7-7-7-7-|  (x 8)
A-|-----------------|
E-|-----------------|


Main Riff
---------
    q   e q   e e e   q     e  q     e  q       q   e e e e e e  
G-|-9---9-9---9-9-9-|-11----12-11----9--7-----|---------------7-|
D-|-----------------|-------------------------|-9---9-9-9-9-9---|
A-|-----------------|-------------------------|-----------------|
E-|-----------------|-------------------------|-----------------|

    e e e e e e e e  
G-|-9-9-9-9-9-9-9-9-|
D-|-7-7-7-7-7-7-7-7-|
A-|-----------------|
E-|-----------------|


Break Riff
----------
    q   e e e e e e  
G-|-9---9-9-9-9-9-9-|
D-|-7---7-7-7-7-7-7-|  (x 8)
A-|-----------------|
E-|-----------------|




comments
print report bad tab
6 comments total. Showing first comments.
0 reply
DANGERharajuku wrote on April 25 2007, 12:49 am

An ok tab.

+9 reply
mwr28 wrote on May 4 2007, 10:14 am


G-|-9---9-9---9-9-9-|-11----12-11----9--7-----|---------------7-|
D-|-----------------|-------------------------|-9---9-9-9-9-9---|
A-|-----------------|-------------------------|-----------------|
E-|-----------------|-------------------------|-----------------|

e e e e e e e e
G-|-----------------|
D-|-7-7-7-7-7-7-7-7-|
A-|-----------------|
E-|-----------------|

wouldnt the main riff be better just like that??? IM PRETTY SURE THATS CORRECT

0 reply
bramster wrote on February 2 2008, 09:49 am

that is right

I want to post or [tab]
guest
You may want to rate the tab now too:
select rating
Please do not post tabs as comments. Select "correction" instead!