Oops, an error
Loading. Please wait.

Love Will Tear Us Apart Bass Tab

version 4
version 4

Interactive

37,373 views 102 this week
4 commentsread comments
1 2 3 4 5
x 4
add to favorites
launch autoscroll
font size
0
reset
guitar tuner
Autoscroll
slow
fast
+/-
esc
set tempo
stop
Help us to improve Ultimate-Guitar.com Take our survey!
×
Tabbed by: jaronthebassist
Love Will Tear Us Apart                   


     Q    E  E  E  E  E  E       E  E  E  E  E  E  E  E  
G|--9----9--9--9--9--9--9--||---9--9--9--9--9--9--9--9---||
D|--7----7--7--7--7--7--7--||*--7--7--7--7--7--7--7--7--*||
A|-------------------------||*--------------------------*||
E|-------------------------||----------------------------||(x7)

     Q    E  Q    E  E  E      Q     E   Q    E  Q     
G|---9----9--9----9--9--9--|--11----12--11----9--7----|
D|*------------------------|--------------------------|
A|*------------------------|--------------------------|
E|-------------------------|--------------------------|

    Q.     E  E  E  E  E     E  Q    E  E  E  E  E  
G|---------------------7--|--9--9----9--9--9--9--9---||
D|--9------9--9--9--9-----|--7--7----7--7--7--7--7--*||
A|------------------------|-------------------------*||
E|------------------------|--------------------------||(x13)

     Q.     E  E  E  E  E   8x   Q    E  Q    E  E  E   
G|---9------9--9--9--9--9---||---9----9--9----9--9--9--|
D|*--7------7--7--7--7--7--*||*------------------------|
A|*------------------------*||*------------------------|
E|--------------------------||-------------------------|

     Q     E   Q    E  Q       Q.     E  E  E  E  E   
G|--11----12--11----9--7----|---------------------7--|
D|--------------------------|--9------9--9--9--9-----|
A|--------------------------|------------------------|
E|--------------------------|------------------------|

    E  Q    E  E  E  E  E   9x   Q.     E  E  E  E  E   
G|--9--9----9--9--9--9--9---||---9------9--9--9--9--9---||
D|--7--7----7--7--7--7--7--*||*--7------7--7--7--7--7--*||
A|-------------------------*||*------------------------*||
E|--------------------------||--------------------------||(x4)

     Q.     E  E  E  E  E     Q.     E  E  E  E  E   
G|---7------7--7--7--7--7--|--7------7--7--7--7--7--|
D|*--0------0--0--0--0--0--|--0------0--0--0--0--0--|
A|*------------------------|------------------------|
E|-------------------------|------------------------|

    Q.     E  E  E  E  E     Q.     E  E  E  E  E   
G|--4------4--4--4--4--4--|--2------2--2--2--2--2---||
D|--0------0--0--0--0--0--|--0------0--0--0--0--0--*||
A|------------------------|--0------0--0--0--0--0--*||
E|------------------------|-------------------------||(x3)

    Q.     E  E  E  E  E     Q.     E  E  E  E  E   
G|--7------7--7--7--7--7--|--7------7--7--7--7--7--|
D|--0------0--0--0--0--0--|--0------0--0--0--0--0--|
A|------------------------|------------------------|
E|------------------------|------------------------|

    W                  
G|--7----------------||
D|--0----------------||
A|-------------------||
E|-------------------||



************************************

| *     parts repeating
| W     whole
| H     half
| Q     quarter
| E     8th
| S     16th
| T     32nd
| X     64th
| .     note dotted
| |-n-| n-tuplets 

************************************
Suggest correction
comments
print report bad tab
4 comments total. Showing first comments.
0 reply
DanielZXC 10 Dec 30, 2013 04:37 PM

soory for the noob question but how do i play this:

Q E E E E E E
G||--9----9--9--9--9--9--9--|
D||--7----7--7--7--7--7--7--|
A||-------------------------|
E||-------------------------|

+2 reply
sonny123456789 10 Jan 03, 2014 03:11 AM

you just play it as you would multiple strings on a guitar. just use a down stroke to hit your d and g strings at the same time.

+1 reply
clvr 37 Feb 16, 2014 08:19 AM

Quite confusing but very very good

guest
You may want to rate the tab now too:
select rating
Wanna post a correction for this tab? Suggest correction