Oops, an error
Loading. Please wait.

New Dawn Fades Bass Tab

version 2
version 2

Whole song

Interactive

16,657 views 96 this week
1 commentread comment
1 2 3 4 5
excellent!
x 10
add to favorites
launch autoscroll
font size
0
reset
guitar tuner
Tab Pro tools
  • play this tab
  • loop segment
  • change instrument
  • show fretboard
  • metronome
Autoscroll
slow
fast
+/-
esc
set tempo
stop
Contributor
Difficulty
novice
-----------------------------------------------------------------------------
			   Joy Division - New Dawn Fades
-----------------------------------------------------------------------------

Tabbed By : Extra Blood
e-mail: Lenda@ofir.dk

Tuning: Standard

Listen to the song to know when to play what.

Have fun playing, and please leave behind 
a comment or a rating.

Riff 3 is only played at the end.

Riff 1
G|---------------------|---------------------|-
D|---------------------|---------------------|-
A|-7--7-77-7-77-7-77-0-|-5--5-55-5-55-5-55-0-|-
E|---------------------|---------------------|-

G|---------------------|---------------------|
D|---------------------|---------------------|
A|-3--3-33-3-33-3-33-3-|-0--0-00-0-00-0-00-0-|
E|---------------------|---------------------|

Riff 2
G|---------------------|---------------------|-
D|---------------------|---------------------|-
A|-7--7-77-7-77-7-77-0-|-5--5-55-5-55-5-55-0-|-
E|---------------------|---------------------|-

G|---------------------|---------/12-12-11-11-9-9-7-7-|
D|---------------------|------------------------------|
A|-3--3-33-3-33-3-33-3-|-0--0-00----------------------|
E|---------------------|------------------------------|

Riff 3
G|---------------------|---------------------|-
D|---------------------|---------------------|-
A|-7----7--5--5--55-5--|-55-5-55-0-3--3-33-3-|-
E|---------------------|---------------------|-

G|-------------/12-12-11-11-9-9-7-7-|-12-12-11-11-9-9-7-7-|-7-7*-|
D|----------------------------------|*-------------------*|------|
A|-33-3-33-3-0----------------------|*-------------------*|------|
E|----------------------------------|---------------------|------|

| /  Slide Up
| \  Slide Down
| *  Let Ring
=============================================================================
comments
print report bad tab
1 comment total.
0 reply
Robin Graves wrote on May 8 2009, 08:37 am

good tab. i play it the same way.

I want to post or [tab]
guest
You may want to rate the tab now too:
select rating
Please do not post tabs as comments. Select "correction" instead!