Oops, an error
Loading. Please wait.
We have an official New Dawn Fades tab made by UG professional guitarists. Check out the tab »
×
4,924 views 12 this week
2 commentsread comments
1 2 3 4 5
1 last vote to show rating
add to favorites
×
Save as Personal and add changes to this tab that will be seen only by you. Learn more ›
×
You can save this tab as Personal to edit and correct it or add notes. All changes will be seen only by you. Learn more »
launch autoscroll
font size
0
reset
how to read this tab
guitar tuner
edit
Autoscroll
slow
fast
+/-
esc
set tempo
stop
Author
Difficulty
Title:     New dawn fades
Band:   Joy Division
Album: Unknown Pleasures

Bass-line throughout the song (also sounds good on low e-string of guitar)

:-------------------------------------------------------------------|
:-------------------------------------------------------------------|
:-7---7-777-77-7705-----555--5-5503-3-3-333333-3330-000-0000000000--|
:-------------------------------------------------------------------|


Intro:
 e:-------------------------------------------------------|
B:--------------------------------------------------------|
G:--------------------------------------------------------|
D:--------------------------------------------------------|
A:--------------------------------------------------------|
E:0-2-3/5-7-5-3/5-7-5-3-2-3-0-----------------------------|  (2X)


e:---------------------------------------------------------------------------|
B:---------------------------------------------------------------------------|
G:---------------------------------------------------------------------------|
D:---------------------------------------------------------------------------|
A:---------------------------------------------------------------------------|
E:0-0-2-0-0-2-0-2...then...12-12-14-12-12-14-12-14---------------------------|


e:-------------------------------------------------------|
B:-------------------------------------------------------|
G:-------------------------------------------------------|
D:--9----------------------------------------------------|
A:--9----------------------------------------------------|
E:--7----------------------------------------------------|


Verse 1  (bass only)

--- no idea for the guitar sounds in the background ----


Verse 2

e:----------------------------------------------------------------|  \
B:----------------------------------------------------------------|    \
G:--9-99-99999777--77777555--55555-----------|     \--------------|     3 times
D:--9-99-99999777--77777555--55555777-----------------------------|     /
A:--7-77-77777555--55555333--33333777-----------------------------|   /
E:--------------------------------------------------555-----------| /


e:-------------------------------------------------------|  \
B:-------------------------------------------------------|   \
G:-------------------------------------------------------|    \    4 times
D:-------------------------------------------------------|    /
A:-------------------------------------------------------|  /
E:0-0-2-0-0-2-0-2......------------------- --------------| /

e:------------------------------------------------------------------------|
B:------------------------------------------------------------------------|
G:------------------------------------------------------------------------|
D:------------------------------------------------------------------------|
A:------------------------------------------------------------------------|
E:14-12---14-14--10-----11/12-12-14---11/12-12-14-------------------------|

e:--------------------------------------------------------------------------------------------|  \
B:-10-10-8-5--8-10-10-8-10----8-10-10-8-5--8-10-10-8-10--( 8 )--------------------------------|   \
G:--------------------------------------------------------------------------------------------|     \    2 times
D:--------------------------------------------------------------------------------------------|     /
A:--------------------------------------------------------------------------------------------|   /
E:--------------------------------------------------------------------------------------------|  /

e:------------------------------------------------------------------------- ---------|
B:--8---10-11-13--15-13-11-13-15-13-11-10-11-8---------- ----------------------------|
G:-----------------------------------------------------------------------------------|
D:-----------------------------------------------------------------------------------|
A:-----------------------------------------------------------------------------------|
E:-----------------------------------------------------------------------------------|

e:-------------------------------------------------|
B:---888---10-11-13--15-13-11-13-15-13-11-10-11-8--|
G:-------------------------------------------------|
D:-------------------------------------------------|
A:-------------------------------------------------|
E:-------------------------------------------------|
Suggest correction
Creating personal tab
Creating personal tab
You can edit any tab online and save it as your Personal.

You can edit, replace or remove any tab part or add personal notes – all changes will be seen only by you.

Personal tabs can be accessed anytime from any device, even offline.
Learn more »
Give kudos to tab author, rate the tab!
1 2 3 4 5
comments
print report bad tab
2 comments total.
0 reply
sberube1979 122 Jul 04, 2009 09:11 AM

Good except there is a low D at the end of the intro riff. It might be in drop D or the intro is palyed an octive up, but good tab otherwise perfect.

0 reply
whitherbottom 454 Aug 10, 2013 07:18 PM

Heres the correct tab for the verse's guitar line
1st 2nd 3rd 4th
E:----7---------------5---------3--------------------------:
B:----7-8-10-10-----8---8-7---3-----3-------5----------5---:
G:-/9--------9----7-------7-5-----5---5-4-5-4-5-(/7)-5-4-5-:
D:--------------5-----------------------7------------------:
A:---------------------------------------------------------:
E:---------------------------------------------------------:

check out the youtube video, New Dawn Fades - Joy Division Cover by raydeater

guest
You may want to rate the tab now too:
select rating
Wanna post a correction for this tab? Suggest correction