Oops, an error
Loading. Please wait.

New Dawn Fades Tab

version 4
version 4

Whole song

Interactive

45,289 views 165 this week
4 commentsread comments
1 2 3 4 5
excellent!
x 25
add to favorites
launch autoscroll
font size
0
reset
how to read this tab
guitar tuner
Autoscroll
slow
fast
+/-
esc
set tempo
stop
Help us to improve Ultimate-Guitar.com Take our survey!
×
Author
-------------------------------------------------------------------------------
                             New Dawn Fades - Joy Division
-------------------------------------------------------------------------------
Tabbed by: Gallagher2006

Tuning: Standard


A few bars of drum n bass then...


[Intro]

e|---------------------------------------------------------------------------|
B|---------------------------------------------------------------------------|
G|---------------------------------------------------------------------------|
D|---------------------------------------------------------------------------|
A|---------------------------------------------------------------------------|
E|-0-----2---3---5-----7--5---3-5-----7--5---3--2---3--0---------------------|

X2

e|---------------------------------------------------------------------------|
B|---------------------------------------------------------------------------|
G|---------------------------------------------------------------------------|
D|---------------------------------------------------------------------------|
A|---------------------------------------------------------------------------|
E|-0--0-2v---0--0-2--0-2-----------------------------------------------------|

X4

e|---------------------------------------------------------------------------|
B|---------------------------------------------------------------------------|
G|---------------------------------------------------------------------------|
D|---------------------------------------------------------------------------|
A|-7--7-9v---7--7-9--7-9-----------------------------------------------------|
E|---------------------------------------------------------------------------|

X 4

The next clean guitar part is just randomly picking at the chords that 
correspond to the bass line. These chords to be exact ;)

    E   D   C   A 

e|------2---0---0-----|
B|--9---3---1---2-----|
G|--9---2---0---2-----|
D|--9---0---2---2-----|
A|--7-------3---0-----|
E|--------------------|

Then the chords are played just once after the interlude (Which is just
The randomly picked chords) with distortion and let ring

e|-----------------------------------|
B|-9-----7------5--------------------|
G|-9-----7------5-----6--------------|
D|-9-----7------5-----7--------------|
A|-7-----5------3-----7--------------|
E|-0------------------5--------------|

Then the guitar solo...this is the “jist” of it actually...it’s just 
These two parts played differently a few times...then the outro


[Solo]

e|----------------|------------------|
B|----------------|------------------|
G|-9--11---9------|-9--11--9--12v----|
D|------------9v--|------------------|
A|----------------|------------------|
E|----------------|------------------|


[Outro]

e|---------------------------------------------------------------------------|
B|---------------------------------------------------------------------------|
G|--9----11--12---14---16--14---12--14----16--14--12--11--12--9--------------|
D|---------------------------------------------------------------------------|
A|---------------------------------------------------------------------------|
E|---------------------------------------------------------------------------|

X 2

And that’s the end of the most emotionally charged Joy Division song...ever!



************************************

| v   Vibrato

************************************
Suggest correction
What's this?
You can suggest a correction to this tab. Community and Mods will review your correction and vote to approve or reject it.
comments
print report bad tab
4 comments total. Showing first comments.
0 reply
phaze08 20 wrote on May 28 2008, 08:09 pm

Great tab, I agree this is really a great song. Great for a moody jam

-1 reply
whitherbottom 392 wrote on August 10 2013, 11:18 pm

Heres the correct tab for the verse's guitar line
1st 2nd 3rd 4th
E:----7---------------5---------3--------------------------:
B:----7-8-10-10-----8---8-7---3-----3-------5----------5---:
G:-/9--------9----7-------7-5-----5---5-4-5-4-5-(/7)-5-4-5-:
D:--------------5-----------------------7------------------:
A:---------------------------------------------------------:
E:---------------------------------------------------------:

check out the youtube video, New Dawn Fades - Joy Division Cover by raydeater

+1 reply
chiico.f 12 wrote on March 13 2015, 04:09 pm

e|----------------|------------------|
B|----------------|------------------|
G|-9--11---9------|-9--11--9--12v----|
D|------------9v--|------------------|
A|----------------|------------------|
E|----------------|------------------|

there is something missing here. I can't figure it out. someone?

guest
You may want to rate the tab now too:
select rating
Please do not post tabs as comments. Select "correction" instead!