Oops, an error
Loading. Please wait.

No Love Lost Bass Tab

version 2
version 2

Whole song

Interactive

1,926 views 3 this week
no commentswrite comment
1 2 3 4 5
2 more votes to show rating
add to favorites
launch autoscroll
font size
0
reset
guitar tuner
Autoscroll
slow
fast
+/-
esc
set tempo
stop
Help us to improve Ultimate-Guitar.com Take our survey!
×
Author
Difficulty
novice
Standard Tuning


Strummed down, then up
|-0----0----0----0--------------------|
|-0----0----0----0--------------------|
|-0----0----0----0--------------------|
|-0----0----0----0--------------------|

0:07 - 0:54   then    1:05 - 1:42
|----------------------------------|
|-------7-------5-------7-------5--|
|-0-0-0---0-0-0---0-0-0---0-0-0----|
|----------------------------------|

1:52 - 2:56   then   3:00 - end of song
|----------------------------------|
|-7-777---5---7---7-777---5---7----|
|-------0---0---0-------0---0---0--|
|----------------------------------|
Suggest correction
Give kudos to tab author, rate the tab!
1 2 3 4 5
comments
print report bad tab
guest
You may want to rate the tab now too:
select rating
Wanna post a correction for this tab? Suggest correction