Oops, an error
Loading. Please wait.

Novelty Bass

3,606 views 3 this week
no commentswrite comment
1 2 3 4 5
1 last vote to show rating
add to favorites
×
Save as Personal and add changes to this tab that will be seen only by you. Learn more ›
launch autoscroll
font size
0
reset
guitar tuner
Autoscroll
slow
fast
+/-
esc
set tempo
stop
"Novelty" by Joy Division (from the album "Substance")
======================================================

transcribed by Gilles Velay

Any comments, corrections or suggestions ?
Please email me at gvelay@club-internet.fr

Notation :
        w : whole       +++ : tied notes
        h : half        R : rest
        q : quarter     / : slide up
        e : 8th         h : hammer on


Pattern 0
=========
     w                  w                 w                 w               [x2] 
G-||------------------|-----------------|-----------------|------------------||
D-||------------------|-----------------|-----------------|------------------||
A-||-0----------------|-3---------------|-5---------------|-7----------------||
E-||------------------|-----------------|-----------------|------------------||

    w                  w                  w                 w               [x3]
G-|------------------|-----------------||-----------------|------------------||
D-|------------------|-----------------||-----------------|------------------||
A-|-R----------------|-R---------------||-R---------------|-R----------------||
E-|------------------|-----------------||-----------------|------------------||
                                          guitar riff

Pattern I
=========
    e e e e e e e e    e e e q   e e e   e e e e e e e e   e e e e e e e e  
G-|------------------|-----------------|-----------------|-----------------|
D-|-5-5-5-5-5-5-5-5--|-4-4-4-5---4-4-0-|-2-2-2-2-2-2-2-0-|-2-2-2-0-2-2-2-0-|
A-|------------------|-----------------|-----------------|-----------------|
E-|------------------|-----------------|-----------------|-----------------|

    e e e e e e e e    e e e q   e e e   e e e e e e e e   e e e e e e e e  
G-|------------------|-----------------|-----------------|-----------------|
D-|-2-2-2-2-2-2-2-2--|-4-4-4-5---4-4-2-|-0-0-0-0-0-0-0-0-|-0-0-0-0-0-0-0-0-|
A-|------------------|-----------------|-----------------|-----------------|
E-|------------------|-----------------|-----------------|-----------------|

Pattern Ib
==========
    e e e e e e e e    e e e q   e e e   e e e e e e e e   e e e e e e e e    
G-|------------------|-----------------|-----------------|-----------------|
D-|-5-5-5-5-5-5-5-5--|-4-4-4-5---4-4-0-|-2-2-2-2-2-2-2-0-|-2-2-2-0-2-2-2-0-|
A-|------------------|-----------------|-----------------|-----------------|
E-|------------------|-----------------|-----------------|-----------------|

    e e e e e e e e    e e e q   e e e   e e e e e e e e   e e e e e e e e  
G-|------------------|-----------------|-----------------|-2---2---2---2---|
D-|-2-2-2-2-2-2-2-2--|-4-4-4-5---4-4-2-|-0-0-0-0-0-0-0-0-|---0---0---0---0-|
A-|------------------|-----------------|-----------------|-----------------|
E-|------------------|-----------------|-----------------|-----------------|


Pattern II
==========  
    e e e e e e e e    e e e q   e e e   q   e e q   e e   e e e e e e e e                  
G-|------------------|-----------------|-----------------|-----------------|
D-|-5-5-5-5-5-5-5-5--|-4-4-4-5---4-4-0-|-2---2-2-2---2-0-|-2-0-2-0-2-0-2-2-|
A-|------------------|-----------------|-----------------|-----------------|
E-|------------------|-----------------|-----------------|-----------------|
                                                                  

Pattern III
===========
    q   e q   e e e    q   e q   e e e   q   q   e q   e+++e e e e e e e e                    
G-|------------------|-----------------|-----------------|-----------------|
D-|-5---5-5---5-5-0--|-4---4-4---4-4-0-|-2---2---2-2---2-|-2-2-2-0-2-0-2-2-|
A-|------------------|-----------------|-----------------|-----------------|
E-|------------------|-----------------|-----------------|-----------------|
                                                                        
Pattern IIIb
============
    e e e q   e e e    e e e q   e e e   q   q   e q   e+++e e e e e e e e                    
G-|------------------|-----------------|-----------------|-----------------|
D-|-5-5-5-5---5-5-0--|-4-4-4-4---4-4-0-|-2---2---2-2---2-|-2-2-2-0-2-0-2-2-|
A-|------------------|-----------------|-----------------|-----------------|
E-|------------------|-----------------|-----------------|-----------------|


Pattern IV
==========
    e e e e e e e e    e e e q   e e e   w                   
G-|------------------|-----------------|-----------------|
D-|-2-2-2-2-2-2-2-2--|-4-4-4-5---4-4-2-|-0---------------|
A-|------------------|-----------------|-----------------|
E-|------------------|-----------------|-----------------|

        


Intro :         Pattern 0
                Pattern I    

1st Verse :     Pattern I 
2nd Verse :     Pattern Ib 

Guitar solo :   Pattern Ib

3rd Verse :     Pattern Ib
4th Verse :     Pattern Ib

Guitar solo :   Pattern Ib
                Pattern II
                Pattern III

5th Verse :     Pattern III (x2)

Break :         Pattern III

6th Verse :     Pattern Ib
7th Verse :     Pattern Ib

Guitar solo :   Pattern Ib (x2)
                Pattern IIIb

8th Verse :     Pattern III (x2)

Outro :         Pattern III
                Pattern IV


Suggest correction
Give kudos to tab author, rate the tab!
1 2 3 4 5
comments
print report bad tab
guest
You may want to rate the tab now too:
select rating
Wanna post a correction for this tab? Suggest correction