Oops, an error
Loading. Please wait.

Passover tab

version 1
version 1

Whole song

  • This is a Six String bass tab. Ultimite guitar won... Show more

Interactive

178 views 3 this week
no commentswrite comment
1 2 3 4 5
3 more votes to show rating
add to favorites
×
Save as Personal and add changes to this tab that will be seen only by you. Learn more ›
×
You can save this tab as Personal to edit and correct it or add notes. All changes will be seen only by you. Learn more »
launch autoscroll
font size
0
reset
how to read this tab
guitar tuner
edit
Autoscroll
slow
fast
+/-
esc
set tempo
stop
About this tab version
This is a Six String bass tab. Ultimite guitar wont allow me to publish it as a bass with these many string. Was this info helpful? Yes No
Standard tuning
This is one of Peter Hooks first bassline with his six string shergold marathon bass, and also a very simple 
one so its a great first song to learn on a six string bass. If you dont have a 6 string bass then you can 
just play the first 4 string as the e and B are really only need to get the full chord

[O]
e|-----------------------------------|
B|-----------------------------------|
G|-----------------------------------|
D|-----------------------------------|
A|-----------------------------------|
E|-11/----0----0----0----0-----------|

e|-----------------------------------|
B|-----------------------------------|
G|-----------------------------------|
D|-----------------------------------|
A|-----------------------------------|
E|----0----0----0--------------------|

e|-----------------------------------|
B|-----------------------------------|
G|---------------7---9---0---9-------|
D|----------7------------------------|
A|-----------------------------------|
E|----0------------------------------|

[I]
e|--12-12-12-------------------------|
B|--12-12-12-------------------------|
G|--9--9--9--------------------------|
D|-----------------------------------|
A|-----------------------------------|
E|--------------0-0-0----------------|
pm|----------------------------------|
you can either mute the open E with your palm or your finger

[III]
For this part gradually unmute the e with your palm or finger until its fully open
e|--12-12-12-------------------------|
B|--12-12-12-------------------------|
G|--9--9--9--------------------------|
D|-----------------------------------|x2
A|-----------------------------------|
E|--------------0-0-0----------------|
pm|----------------------------------|

e|--12-12-12-------------------------|
B|--12-12-12-------------------------|
G|--9--9--9--------------------------|
D|-----------------------------------|
A|-----------------------------------|
E|--------------0-0-0----------------|
pm|------------|

[II]
e|--12-12-12-------------------------|
B|--12-12-12-------------------------|
G|--9--9--9--------------------------|
D|-----------------------------------|
A|-----------------------------------|
E|--------------0-0-0----------------|

[VI]
e|--12-12-12-12-12-12-12-12-12-12-12-|
B|--12-12-12-12-12-12-12-12-12-12-12-|
G|--9--9--9--9--9--9--9--9--9--9--9--|
D|-----------------------------------|
A|-----------------------------------|
E|-----------------------------------|

[II]
e|--12-12-12-------------------------|
B|--12-12-12-------------------------|
G|--9--9--9--------------------------|
D|-----------------------------------|
A|-----------------------------------|
E|--------------0-0-0----------------|

[II]
e|--12-12-12-------------------------|
B|--12-12-12-------------------------|
G|--9--9--9--------------------------|
D|-----------------------------------|
A|-----------------------------------|
E|--------------0-0-0----------------|

[VI]
e|--12-12-12-12-12-12-12-12-12-12-12-|
B|--12-12-12-12-12-12-12-12-12-12-12-|
G|--9--9--9--9--9--9--9--9--9--9--9--|
D|-----------------------------------|
A|-----------------------------------|
E|-----------------------------------|

[II]
e|--12-12-12-------------------------|
B|--12-12-12-------------------------|
G|--9--9--9--------------------------|
D|-----------------------------------|
A|-----------------------------------|
E|--------------0-0-0----------------|

[O]
e|-----------------------------------|
B|-----------------------------------|
G|-----------------------------------|
D|-----------------------------------|
A|-----------------------------------|
E|-11/----0----0----0----0-----------|

e|-----------------------------------|
B|-----------------------------------|
G|-----------------------------------|
D|-----------------------------------|
A|-----------------------------------|
E|----0----0----0--------------------|

e|-----------------------------------|
B|-----------------------------------|
G|---------------7---9---0---9-------|
D|----------7------------------------|
A|-----------------------------------|
E|----0------------------------------|

************************************

| /  Slide up
| pm 

************************************

            
            
Suggest correction
Creating personal tab
Creating personal tab
You can edit any tab online and save it as your Personal.

You can edit, replace or remove any tab part or add personal notes – all changes will be seen only by you.

Personal tabs can be accessed anytime from any device, even offline.
Learn more »
Give kudos to tab author, rate the tab!
1 2 3 4 5
comments
print report bad tab
guest
You may want to rate the tab now too:
select rating
Wanna post a correction for this tab? Suggest correction