Oops, an error
Loading. Please wait.

Shadowplay Bass Tab

version 1
version 1

Whole song

Interactive

47,259 views 102 this week
no commentswrite comment
1 2 3 4 5
excellent!
x 19
add to favorites
launch autoscroll
font size
0
reset
guitar tuner
Autoscroll
slow
fast
+/-
esc
set tempo
stop
Help us to improve Ultimate-Guitar.com Take our survey!
×
-------------------------------------------------------------------------------
			     Shadowplay - Joy Division
-------------------------------------------------------------------------------

Tabbed By : Gallagher2006

Tuning: Standard

Well, after watching the band play this song in their music video,
I think I’ve got the song down for bass...

Intro...

G|---------------------------------------------------------------------------|
D|---------------------------------------------------------------------------|
A|---------------------------------------------------------------------------|
E|-8-8-8-8-8-8-8-8-8-8-8-8-8-10-10-0-0-0-0-0-0-0-0-0-0-0-0-0-0-0-------------|

And essentially the same riff is used throughout the song, but here...

G|---------------------------------------------------------------------------|
D|---------------------------------------------------------------------------|
A|-3--3-3---3-3--3-3-5-5-----------------------------------------------------|
E|-----------------------0--0-0--0-0--0-0-0-0-0------------------------------|

And alternated here...

G|---------------------------------------------------------------------------|
D|---------------------------------------------------------------------------|
A|--3--3-3--3-3--3-3-5-5--7--7-7-7-7-7-7-7-----------------------------------|
E|---------------------------------------------------------------------------|


Listen to the song for the timing =]
Suggest correction
comments
print report bad tab
guest
You may want to rate the tab now too:
select rating
Wanna post a correction for this tab? Suggest correction