Oops, an error
Loading. Please wait.

Shadowplay Bass Tab

version 2
version 2

Whole song

Interactive

8,615 views 12 this week
1 commentread comment
1 2 3 4 5
x 5
add to favorites
launch autoscroll
font size
0
reset
guitar tuner
Autoscroll
slow
fast
+/-
esc
set tempo
stop
Help us to improve Ultimate-Guitar.com Take our survey!
×
Author
Difficulty
-----------------------------------------------------------------------------
			   Joy Division - Shadowplay
-----------------------------------------------------------------------------

Tuning: Standard

Main riff:

G-----------------------|
D-----------------------|
A-----------------------|
E-8-(x14)-/-10--0-(x16)-|

So, the song is basicly this riff
over and over again.

Except for this part.

02:07
G-----------------------------------|
D-----------------------------------|
A----------------------7--5-7-5-7\--|
E-8-(x14)-/-10--0-(x8)--------------|

G-------------------------------------|
D-------------------------------------|
A-3-(x14)-/-5---------7-7-5-5---------|
E--------------0-(x8)---------8-8-7-7-|

Afterwards, play the main riff again.

End the song like this:

G-----------------------|
D-----------------------|
A-----------------------|
E-8-(x14)-/-10--0-------|
                ^Let Ring

=============================================================================
Suggest correction
comments
print report bad tab
1 comment total.
0 reply
drsativa 31 Sep 05, 2010 08:57 AM

nice too see someone listening properly before tabbing.

guest
You may want to rate the tab now too:
select rating
Wanna post a correction for this tab? Suggest correction