Oops, an error
Loading. Please wait.

Shes Lost Control Bass Tab

version 3
version 3

Interactive

38,239 views 63 this week
1 commentread comment
1 2 3 4 5
x 14
add to favorites
launch autoscroll
font size
0
reset
guitar tuner
Autoscroll
slow
fast
+/-
esc
set tempo
stop
Help us to improve Ultimate-Guitar.com Take our survey!
×
Author
----------------------------------------------------------------------------
                             She's Lost Control- Joy Division
----------------------------------------------------------------------------

Tabbed By : Nate Cat
e-mail: Nateg1489@aol.com

Tuning: EADG

G|-19--19-19-19-19-19-17-19-17-15--15-15-17-17-17-17-17-17-15-17-15-12-12-12-|
D|--0---0--0--0--0--0--0--0--0--0---0--0--0--0--0--0--0--0--0--0--0--0--0--0-|
A|---------------------------------------------------------------------------|
E|---------------------------------------------------------------------------|

G|-19-19-19-19-19-19-15-15-15-17-17-17-|
D|--0--0--0--0--0--0--0--0--0--0--0--0-|
A|-------------------------------------|
E|-------------------------------------|

G|-19-19-19-19-19-19-19----12-12-12-12-12-12-|
D|--0--0--0--0--0--0--0-----0--0--0--0--0--0-|
A|-------------------------------------------|
E|-------------------------------------------|

You can play it without open D, but that's how the original recording was.  The Unknown Pleasures
recording was without it.


[Ending]

G|------------------------------------------------------------------------------|
D|------------------------------------------------------------------------------|
A|------------------------------------------------------------------------------|
E|-3-3--3-5-5--5-6-6--6-8-8--8--10-10-10-10-10-10-10-10-10-10-10-10-10-10-10-10-|

G|-------------------------------------------------------------------|
D|-------------------------------------------------------------------|
A|-------------------------------------------------------------------|
E|-3-3--3-5-5--5-6-6--6-8-8--8-5-5-5-5-5-5-5-5-5-5-5-5-5-5-5-5-------|
Suggest correction
comments
print report bad tab
1 comment total. show 1 bad comment
guest
You may want to rate the tab now too:
select rating
Wanna post a correction for this tab? Suggest correction