Oops, an error
Loading. Please wait.
We have an official Shes Lost Control tab made by UG professional guitarists. Check out the tab »
×
4,199 views 6 this week
no commentswrite comment
1 2 3 4 5
x 4
add to favorites
launch autoscroll
font size
0
reset
how to read this tab
guitar tuner
backing track
0:00
0:00
×
Best way to learn
"Shes Lost Control"
Autoscroll
slow
fast
+/-
esc
set tempo
stop
-------------------------------------------------------------------------------
                     She’s Lost Control - Joy Division
-------------------------------------------------------------------------------
Tabbed by: Gallagher2006
Email:

Tuning: Standard

This song is build around 2 chord progressions...

e|-----------------------------------------------------------------------|
B|------------------------------------------|---Play this twice-------|--|
G|--4-4--x--6-6-6--x--7--7-7--x--9--9--9--x-|-11-11-11-11-11-11-11-11-|--|
D|--5-5--x--7-7-7--x--8--8-8--x--10-10-10-x-|-12-12-12-12-12-12-12-12-|--|
A|--5-5--x--7-7-7--x--8--8-8--x--10-10-10-x-|-12-12-12-12-12-12-12-12-|--|
E|--3-3--x--5-5-5--x--6--6-6--x--8--8--8--x-|-10-10-10-10-10-10-10-10-|--|

e|-----------------------------------------------------------------------|
B|------------------------------------------|---Play this twice-------|--|
G|--4-4--x--6-6-6--x--7--7-7--x--9--9--9--x-|--6--6--6--6--6--6--6--6-|--|
D|--5-5--x--7-7-7--x--8--8-8--x--10-10-10-x-|--7--7--7--7--7--7--7--7-|--|
A|--5-5--x--7-7-7--x--8--8-8--x--10-10-10-x-|--7--7--7--7--7--7--7--7-|--|
E|--3-3--x--5-5-5--x--6--6-6--x--8--8--8--x-|--5--5--5--5--5--5--5--5-|--|

That is, virtually the whole song. There is a point where the 2 guitars
That are panned oppositely go out of time and it appears that 
It plays the ascending riff for the whole 4 bars, so if you record this song, 
Be sure to do that.

Here’s the outro solo...

e|---------------------------------------------------------------------------|
B|---------------------------------------------------------------------------|
G|---------------------------------------------------------------------------|
D|-12-12-10-12-12-10-12-12-12-10-etc-----------------------------------------|
A|---------------------------------------------------------------------------|
E|---------------------------------------------------------------------------|
Suggest correction
comments
print report bad tab
guest
You may want to rate the tab now too:
select rating
Wanna post a correction for this tab? Suggest correction