Oops, an error
Loading. Please wait.

Shes Lost Control Bass Tab

version 4
version 4

Interactive

8,716 views 18 this week
2 commentsread comments
1 2 3 4 5
excellent!
x 10
add to favorites
launch autoscroll
font size
0
reset
guitar tuner
Autoscroll
slow
fast
+/-
esc
set tempo
stop
Help us to improve Ultimate-Guitar.com Take our survey!
×
-------------------------------------------------------------------------------
		    She’s Lost Control - Joy Division
-------------------------------------------------------------------------------

Tabbed By : Gallagher2006

Tuning: Standard

Well, this is made of basic riffs played high on the fret board...

It’s best to play with the open D to get that droned sound...

Intro/Verse riff

G|-19--19--19-19-17--19--17--15---15--15-15---17-17-17--15-17-15--12-12-12-12|
D|-0---0----0--0--0---0---0---0----0---0--0---0--0---0--0---0--0--0--0--0--0-|
A|---------------------------------------------------------------------------|
E|---------------------------------------------------------------------------|

Chorus tiff

G|-19--19-19-19--15--15-17--17--17-17--19-19-19-19-12--12-12-12-12-----------|
D|-0----0--0--0--0----0--0--0----0--0--0--0--0--0---0---0--0--0--0-----------|
A|---------------------------------------------------------------------------|
E|---------------------------------------------------------------------------|

Bridge/Outro riff

G|---------------------------------------------------------------------------|
D|-5-5---7-7-7-8-8-8-10-10-10-12-12-12-12-12-12-12-12-12-12-12-12-12-12-12-12|
A|---------------------------------------------------------------------------|
E|---------------------------------------------------------------------------|

G|---------------------------------------------------------------------------|
D|-5-5---7-7-7-8-8-8-10-10-10------------------------------------------------|
A|----------------------------12-12-12-12-12-12-12-12-12-12-12-12-12-12-12-12|
E|---------------------------------------------------------------------------|

Easy!
Suggest correction
comments
print report bad tab
2 comments total.
0 reply
Dave-kun 120 wrote on October 25 2014, 08:05 am, edited at 08:07 am

I could be wrong, but I think the first part of the bridge must be something like this:

+2 reply
Dave-kun 120 wrote on October 25 2014, 08:19 am

G|---------------------------------------------------------------------------|
D|-5-5---7-7-7-8-8-8-10-10-10-12-12-12-12-12-12-12-12-0-12-12-12-0-12-12-12--|
A|---------------------------------------------------------------------------|
E|---------------------------------------------------------------------------|

guest
You may want to rate the tab now too:
select rating
Please do not post tabs as comments. Select "correction" instead!