Oops, an error
Loading. Please wait.

Shes Lost Control Bass Tab

version 5
version 5

Interactive

6,465 views 6 this week
no commentswrite comment
1 2 3 4 5
1 last vote to show rating
add to favorites
launch autoscroll
font size
0
reset
guitar tuner
Autoscroll
slow
fast
+/-
esc
set tempo
stop
Help us to improve Ultimate-Guitar.com Take our survey!
×
Tabbed by: jaronthebassist

                                    She's Lost Control                                      


                                                                                Joy Division
Bass



       Q     E   E   E   E   E   E      E   E   E   Q     E   E   E   
G||---19----19--19--19--19--19--19--|--17--19--17--15----15--15--15--|
D||*---0-----0---0---0---0---0---0--|---0---0---0---0-----0---0---0--|
A||*--------------------------------|--------------------------------|
E||---------------------------------|--------------------------------|


   Q     E   E   E   E   E   E      E   E   E   Q     E   E   E   6x
--17----17--17--17--17--17--17--|--15--17--15--12----12--12--12---||
---0-----0---0---0---0---0---0--|---0---0---0---0-----0---0---0--*||
--------------------------------|--------------------------------*||
--------------------------------|---------------------------------||


   Q     E   E   E   E   E   E      E   E   E   Q     E   E   E   
--19----19--19--19--19--19--19--|--15--15--15--17----17--17--17--|
---0-----0---0---0---0---0---0--|---0---0---0---0-----0---0---0--|
--------------------------------|--------------------------------|
--------------------------------|--------------------------------|


   Q     E   E   E   E   E   E      E   E   E   E   E   E   E   E   
--19----19--19--19--19--19--19--|--12--12--12--12--12--12--12--12--|
---0-----0---0---0---0---0---0--|---0---0---0---0---0---0---0---0--|
--------------------------------|----------------------------------|
--------------------------------|----------------------------------|


     Q     E   E   E   E   E   E      E   E   E   Q     E   E   E   
|---19----19--19--19--19--19--19--|--17--19--17--15----15--15--15--|
|*---0-----0---0---0---0---0---0--|---0---0---0---0-----0---0---0--|
|*--------------------------------|--------------------------------|
|---------------------------------|--------------------------------|


   Q     E   E   E   E   E   E      E   E   E   Q     E   E   E   6x
--17----17--17--17--17--17--17--|--15--17--15--12----12--12--12---||
---0-----0---0---0---0---0---0--|---0---0---0---0-----0---0---0--*||
--------------------------------|--------------------------------*||
--------------------------------|---------------------------------||


    Q     E   E   E   E   E   E      E   E   E   Q     E   E   E   
---19----19--19--19--19--19--19--|--15--15--15--17----17--17--17--|
*---0-----0---0---0---0---0---0--|---0---0---0---0-----0---0---0--|
*--------------------------------|--------------------------------|
---------------------------------|--------------------------------|


   Q     E   E   E   E   E   E      E   E   E   E   E   E   E   E     
--19----19--19--19--19--19--19--|--12--12--12--12--12--12--12--12---||
---0-----0---0---0---0---0---0--|---0---0---0---0---0---0---0---0--*||
--------------------------------|----------------------------------*||
--------------------------------|-----------------------------------||


   E  E  E  E  E  E  E  E     E  E  E  E  E  E  E  E     E  E  E  E  E  E  E  E   
---------------------------|--------------------------|--------------------------|
*--------------------------|--------------------------|--------------------------|
*--------------------------|--------------------------|--5--5--5-----5--5--5-----|
---3--3-----3--5--5-----5--|--6--6-----6--8--8-----8--|-----------5-----------5--|


  E  E  E  E  E  E  E  E     E  E  E  E  E  E  E  E     E  E  E  E  E  E  E  E   
--------------------------|--------------------------|--------------------------|
--------------------------|--------------------------|--------------------------|
--5--5--5-----5--5--5-----|--------------------------|--------------------------|
-----------5-----------5--|--3--3-----3--5--5-----5--|--6--6-----6--8--8-----8--|


  E  E  E  E  E  E  E  E     E  E  E  E  E  E  E  E         Q     E   E   E   E   E   E   
--------------------------|---------------------------||---19----19--19--19--19--19--19--|
--------------------------|--------------------------*||*---0-----0---0---0---0---0---0--|
--------------------------|--------------------------*||*--------------------------------|
--5--5--5--5--5--5--5--5--|--5--5--5--5--5--5--5--5---||---------------------------------|


   E   E   E   Q     E   E   E      Q     E   E   E   E   E   E   
--17--19--17--15----15--15--15--|--17----17--17--17--17--17--17--|
---0---0---0---0-----0---0---0--|---0-----0---0---0---0---0---0--|
--------------------------------|--------------------------------|
--------------------------------|--------------------------------|


   E   E   E   Q     E   E   E   6x    Q     E   E   E   E   E   E   
--15--17--15--12----12--12--12---||---19----19--19--19--19--19--19--|
---0---0---0---0-----0---0---0--*||*---0-----0---0---0---0---0---0--|
--------------------------------*||*--------------------------------|
---------------------------------||---------------------------------|


   E   E   E   Q     E   E   E      Q     E   E   E   E   E   E   
--15--15--15--17----17--17--17--|--19----19--19--19--19--19--19--|
---0---0---0---0-----0---0---0--|---0-----0---0---0---0---0---0--|
--------------------------------|--------------------------------|
--------------------------------|--------------------------------|


   E   E   E   E   E   E   E   E        E  E  E  E  E  E  E  E     E  E  E  E  E  E  E  E   
--12--12--12--12--12--12--12--12---||---------------------------|--------------------------|
---0---0---0---0---0---0---0---0--*||*--------------------------|--------------------------|
----------------------------------*||*--------------------------|--------------------------|
-----------------------------------||---3--3-----3--5--5-----5--|--6--6-----6--8--8-----8--|


  E  E  E  E  E  E  E  E     E  E  E  E  E  E  E  E     E  E  E  E  E  E  E  E   
--------------------------|--------------------------|--------------------------|
--------------------------|--------------------------|--------------------------|
--5--5--5-----5--5--5-----|--5--5--5-----5--5--5-----|--------------------------|
-----------5-----------5--|-----------5-----------5--|--3--3-----3--5--5-----5--|


  E  E  E  E  E  E  E  E     E  E  E  E  E  E  E  E     E  E  E  E  E  E  E  E   8x
--------------------------|--------------------------|---------------------------||
--------------------------|--------------------------|--------------------------*||
--------------------------|--------------------------|--------------------------*||
--6--6-----6--8--8-----8--|--5--5--5--5--5--5--5--5--|--5--5--5--5--5--5--5--5---||


  E  E  E  E  E  E  E  E     E  E  E  E  E  E  E  E      W                  
--------------------------|--------------------------|--------------------||
--------------------------|--------------------------|--------------------||
--------------------------|--------------------------|--------------------||
--3--3--3--5--5--5--5--6--|--6--6--6--8--8--8--8--8--|--10----------------||




Duration Legend
---------------
W - whole
H - half
Q - quarter
E - 8th
S - 16th
T - 32nd
X - 64th
. - note dotted
|-n-|  - n-tuplets


Tablature Legend
----------------
L - tied note
x - dead note
g - grace note
(n) - ghost note
> - accentuded note
NH - natural harmonic
AH - artificial harmonic
TH - tapped harmonic
SH - semi harmonic
PH - pitch harmonic
h - hammer on
p - pull off
b - bend
br - bendRelease
pb - preBend
pbr - preBendRelease
brb - bendReleaseBend
\n/ - tremolo bar dip
\n - tremolo bar dive
-/n - tremolo bar Release up
/n\ - tremolo bar inverted dip
/n - tremolo bar return
-\n - tremolo bar Release down
S - shift slide
s - legato slide
/ -  slide into from below or out of upwards
\ -  slide into from above or out of downwards
~ - vibrato
W - wide vibrato
tr - trill
TP - tremolo picking
T - tapping
S - slap
P - pop
< - fade in
^ - brush up
v - brush down
Suggest correction
Give kudos to tab author, rate the tab!
1 2 3 4 5
comments
print report bad tab
guest
You may want to rate the tab now too:
select rating
Wanna post a correction for this tab? Suggest correction