Oops, an error
Loading. Please wait.

The Eternal Bass Tab

version 1
version 1

Whole song

Interactive

4,334 views 21 this week
2 commentsread comments
1 2 3 4 5
accurate
x 5
add to favorites
launch autoscroll
font size
0
reset
guitar tuner
Autoscroll
slow
fast
+/-
esc
set tempo
stop
Help us to improve Ultimate-Guitar.com Take our survey!
×
"The Eternal" by Joy Division (from the album "Closer")
=======================================================

transcribed by Gilles Velay (gvelay@club-internet.fr)

Notation :
	w : whole         t : 32th
	h : half	      R : rest
	q : quarter	      / : slide up
	e : 8th	    +++ : tied notes
	s : 16th          \ : slide down

Riff I
======
    q+e   e q+e   e   q+e   e e e e e
G-|-----------------|-----------------|
D-|-----------------|-----------------|
A-|-----------------|-----------------|
E-|-5-----R-5-----R-|-5-----R-5-3-2-0-|

Riff II
=======
    q   q   h         h       e e e e
G-|---------9-------|-9-------9---9---|
D-|-----7-----------|-----------7---7-|
A-|-0---------------|-----------------|
E-|-----------------|-----------------|

Riff III
========
    q   q   h         h       e e e e
G-|---------9-------|-9-------9-------|
D-|-----7-----------|-----------7---7-|
A-|-----------------|-------------0---|
E-|-0---------------|-----------------|

Riff IV
========
    q   q   h         h       e e e e
G-|-9-------9-------|-9-------9---9---|
D-|-----7-----------|-----------7---7-|
A-|-----------------|-----------------|
E-|-----------------|-----------------|

Riff V
=======
    q   q   h         h       e e e e
G-|-9-------9-------|-9-------9-------|
D-|-----7-----------|-----------7---7-|
A-|-----------------|-------------0---|
E-|-----------------|-----------------|

Riff VI
=======
    q+e   e q+e   e   q+e   e q+e   e   
G-|-----------------|-----------------|
D-|-----------------|-----------------|
A-|-----------------|-----------------|
E-|-5-----R-5-----R-|-5-----R-5-----R-|



Intro : Riff I   (x4)
        Riff II  (x8) with keyboard

1st Verse : Riff II  (x8)

2nd Verse : Riff II  (x8)

Break : Riff II (x4)
        Riff I  (x5)
        Riff II (x8)

3rd Verse : Riff II  (x8)

4th Verse : Riff II  (x2)
            Riff III
            Riff IV
            Riff V   (x4)

End : Riff V  (x6)
      Riff VI (x4) and the last note is a A

Suggest correction new What's this?
You can suggest a correction to this tab. Community and Mods will review your correction and vote to approve or reject it.
comments
print report bad tab
2 comments total.
0 reply
swave75 1,921 wrote on July 21 2012, 07:14 pm

Dead on accurate. Just fantastic. A+!

0 reply
NuErDetNok 10 wrote on July 13 2016, 09:00 pm

q q h h e e e e
G-|---------9-------|-9-------9-------|
D-|-----7-----------|-----------0-0-0-|
A-|-0---------------|-------------9-11|
E-|-----------------|-----------------|

Hooky plays this fill from 4:19 and onwards. This fill is strangely overlooked in all the tabs I have looked at.

guest
You may want to rate the tab now too:
select rating
Please do not post tabs as comments. Select "correction" instead!