Oops, an error
Loading. Please wait.

The Sound Of Music Bass Tab

5,371 views 3 this week
no commentswrite comment
1 2 3 4 5
please rate
add to favorites
launch autoscroll
font size
0
reset
guitar tuner
Autoscroll
slow
fast
+/-
esc
set tempo
stop
Help us to improve Ultimate-Guitar.com Take our survey!
×
JOY DIVISION - THE SOUND OF MUSIC
ALBUM: STILL (2007)
BASSIST: ...of course PETER HOOK

INTRO/VERSE (WITH HIGH FREQ)

E --------------------------------------------------------------------------|
A ---7-7--5--7--5--7--(0)--5-7-7--0-0-0-0--(0)--5-7-7--5-7-(7)--------------|
D -------------------------------------------------------------5/9--7-5-7---|
G --------------------------------------------------------------------------|

THERE ARE SOME VARIATIONS OF THE VERSE

BRIDGE/CHORUS

E --------------------------------------------------------------------------|
A -5-7-7-7-7-7-7-7-7--5-7-7-7-7-7-7-7-7--5-7-7-7-7-7-7-7-7--0-0-0-0-0-0-5/7-|
D --------------------------------------------------------------------------|
G --------------------------------------------------------------------------|

OUTRO (WITH BASS FREQ)

E ---------------------------------------------------|
A -------------------------------------------7-------|
D ------------------------------9-9-9-9-9-9----------|
G ---9-9-9-9-9-9---7-7-7-7-7-7-----------------------|

probably it's not perfect but the sound on track it's not perfect too and this song must 
a tab...

JAH WOBBLE IS GOD
Suggest correction
Give kudos to tab author, rate the tab!
1 2 3 4 5
comments
print report bad tab
guest
You may want to rate the tab now too:
select rating
Wanna post a correction for this tab? Suggest correction