Oops, an error
Loading. Please wait.

These Days Bass Tab

4,339 views 9 this week
1 commentread comment
1 2 3 4 5
excellent!
x 5
add to favorites
launch autoscroll
font size
0
reset
guitar tuner
Autoscroll
slow
fast
+/-
esc
set tempo
stop
Help us to improve Ultimate-Guitar.com Take our survey!
×
"These Days" by Joy Division (from the album "Substance")
=========================================================

transcribed by Gilles Velay

Any comments, corrections or suggestions ?
Please email me at velay@suisse.far.cea.fr

Notation :
	w : whole
	h : half
	q : quarter	/ : slide up
	e : 8th		h : hammer on


Pattern I
=========

    q   e e e e q      w                 q   e e e e q     w                   
G-|-7---5------------|-----------------|-7---5-----------|--------------------|
D-|-------7-5--------|-----------------|-------7-5-------|--------------------|
A-|-----------8-5----|-3---------------|-----------8-3-/-|-5------------------|
E-|------------------|-----------------|-----------------|--------------------|


Pattern Ib
==========

    e e e e e e q      w                 e e e e e e q     w                   
G-|-7-7-5------------|-----------------|-7-7-5-----------|--------------------|
D-|-------7-5--------|-----------------|-------7-5-------|--------------------|
A-|-----------8-5----|-3---------------|-----------8-3-/-|-5------------------|
E-|------------------|-----------------|-----------------|--------------------|


Pattern II
==========  
                                                                  
    e e e e e e e e    e e e e e e e e   e e e e e e e e   e e e e e e e e     
G-|------------------|-5---------------|-5-7-7-7-7-7-7-7-|-5-7-7-7-7-7-7-7----|
D-|-5-7-7-7-7-7-7-7--|---7-7-7-7-7-7-7-|-----------------|--------------------|
A-|------------------|-----------------|-----------------|--------------------|
E-|------------------|-----------------|-----------------|--------------------|


Pattern III
===========
                                                                  
    e e e e e e e e    e e e q   e e e   e e e e e e e e   e e e e h           
G-|------------------|-------11----11--|-----------------|--------------------|
D-|/4-4-4-4-4-4-4-4--|-9-9-9-----9---9-|-----------------|--------------------|
A-|------------------|-----------------|-7-7-7-7-7-7-7-7-|--------------------|
E-|------------------|-----------------|-----------------|-5-5-5-5-5----------|


Pattern IV
==========
       
     e e e e e e e e [x4]      
G-||------------------||
D-||------------------||
A-||------------------||
E-||-5-5-5-5-5-5-5-5--||



Intro : 	guitar... drums... then
		Pattern I   (x2)  

1st Verse :	Pattern II  (x4)

2nd Verse :	Pattern II  (x3)
		Pattern Ib  (x2)

Chorus :	Pattern III (x3)  
		
3rd Verse :	Pattern II  (x3)
		Pattern Ib  (x2)

Chorus :	Pattern III (x3)  

Break :		Pattern IV

4th Verse :	Pattern II  (x4)

Outro :		Pattern Ib  (x2)
		


Suggest correction
comments
print report bad tab
1 comment total.
0 reply
Dave-kun 120 wrote on September 12 2015, 07:32 am

I think there must be


G-|------------------|-------11--------|
D-|/4-4-4-4-4-4-4-4--|-9-9-9-----9-11-9|
A-|------------------|-----------------|
E-|------------------|-----------------|

in the Pattern III

guest
You may want to rate the tab now too:
select rating
Wanna post a correction for this tab? Suggest correction