Oops, an error
Loading. Please wait.

Transmission Tab

version 1
version 1

Whole song

Interactive

56,452 views 33 this week
no commentswrite comment
1 2 3 4 5
x 4
add to favorites
launch autoscroll
font size
0
reset
how to read this tab
guitar tuner
×
Best way to learn
"Transmission"
Autoscroll
slow
fast
+/-
esc
set tempo
stop
[Intro]

e|---------------------------------------------------------------------|
B|---------------------------------------------------------------------|
G|-2-4-4---4--2-4-4---4--2-4-4---4--2-4-4\-----------------------------|
D|---------------------------------------------------------------------|
A|-----------------------------------------2--0-2-2----2--0-2-2---2----|
E|---------------------------------------------------------------------|

e|---------------------------------------------------------------------|
B|---------------------------------------------------------------------|
G|---------------------------------------------------------------------|
D|--------/2-4-4------------0-2--0-2--0-2--2-0------0-2--0-2--0-2--2-0-|
A|-0-2-2----------0-2-0-2-3---------------------2-3--------------------|
E|---------------------------------------------------------------------|

e|---------------------------------------------------------------------|
B|---------------------------------------------------------------------|
G|--------------------------2/4\---------------------------------------|
D|-----0-2--0-2--0-2--2-0----------------------------------------------|
A|-2-3-----------------------------------------------------------------|
E|---------------------------------------------------------------------|

Ok.. then be quiet while Ian does his lyrics, and after the verses
do something about the same as above.  Repeat this a few times, and
then:

e|-------------------------------------------|
B|--5^---5----5^-5--5^-5--5--3--3--0-3-0-3-0-|
G|-------------------------------------------|
D|-------------------------------------------|
A|-------------------------------------------|
E|-------------------------------------------|

then:

e|---------------------------|
B|--3-0-3-0-3-0-3-0-3-5-5^-3-|
G|---------------------------|
D|---------------------------|
A|---------------------------|
E|---------------------------|(x3)

Transmission

[Bass]

------------------------------------------------------------------|
-0-0-0-0-0-0-0-0-0-0-0-0-0-0-0------------------------------------|
--------------------------------0-3-3-3-3-3-3-3-3-3-3-3-3-3-3-3-0-|
------------------------------------------------------------------|

[Fill]

e|-------------|
B|-------------|
G|-------------|
D|-0---0----2--|
A|---3---3-----|
E|-------------|

[Guitar Melody]

e|-----------------------------------------------|
B|-----------------------------------------------|
G|-2--4-4--2--2--4-4--2--------------------------|
D|-----------------------------------------------|
A|---------------0--2-2--0--0--2-2--0------------|
E|-----------------------------------------------|

[Solo]

e|----------------------------|
B|-6--5--6-5-6-5-6------------|
G|-----------7--4--7-4-7-4-7--|
D|----------------------------|
A|----------------------------|
E|----------------------------|


Radio - live transmission - radio
live transmission

Listen to the silence, let it ring on
Eyes dark, relentless, frightened of the sun
We would have a fine time living in the night
Left a blind destruction,
Waiting for our sign

We would go on as though nothing was wrong
Hide from these days to remain all alone
Staying in the same place,
just staring at the tide
Touching from a distance, further all the time

Dance, dance, dance, dance,
dance to the radio (4)

Well I could call out
when the going gets tough
The things we've learned
are no longer enough
No language, just sound
is all we need know
To synchronise love to the beat
of the show
And we could dance -- dance, dance,
dance, dance, to the radio (4)


************************************

| \  Slide down
| /  Slide up
| ^  bend

************************************
Suggest correction
comments
print report bad tab
guest
You may want to rate the tab now too:
select rating
Wanna post a correction for this tab? Suggest correction