Oops, an error
Loading. Please wait.

Warsaw Bass Tab

version 2
version 2

Whole song

Interactive

6,172 views 6 this week
no commentswrite comment
1 2 3 4 5
1 last vote to show rating
add to favorites
launch autoscroll
font size
0
reset
guitar tuner
Autoscroll
slow
fast
+/-
esc
set tempo
stop
Help us to improve Ultimate-Guitar.com Take our survey!
×
Author
Difficulty
-----------------------------------------------------------------------------
			Joy Division - Warsaw
-----------------------------------------------------------------------------

Tabbed By : Extra Blood
e-mail: Lenda@ofir.dk

Tuning: Standard

I'm not entirely sure that this
is excatly how it is played.

Please leave behind
a comment or a rating.

3,5,0,1,2,5 GO!

00:06,00:45,01:20
G|--------------------|-----|
D|*------------------*|-----|
A|*------------------*|-----|
E|-3-2-0-00-00-00-0-0-|-3-2-|

00:34,01:09,02:01
G|---------------------------|---------|
D|*-------------------------*|---------|
A|*-------------0-2-4-2-0-2-*|---------|
E|-2-22-3-33-2---------------|-2-2*----|

02:13
G|-------|--------------------------|---------|---|
D|-------|*------------------------*|---------|---|
A|-------|*----2/5-----2/5-----2/5-*|---------|---|
E|-3-2-0-|-0-0-----0-0-----0-0------|-3-2-0*--|-0-|

| *  Let Ring
| /  Slide Up
| \  Slide Down
=============================================================================
Suggest correction
Give kudos to tab author, rate the tab!
1 2 3 4 5
comments
print report bad tab
guest
You may want to rate the tab now too:
select rating
Wanna post a correction for this tab? Suggest correction