Oops, an error
Loading. Please wait.

Wilderness Tab

version 1
version 1

Whole song

Interactive

3,985 views 12 this week
2 commentsread comments
1 2 3 4 5
please rate
add to favorites
launch autoscroll
font size
0
reset
how to read this tab
guitar tuner
Tab Pro tools
  • play this tab
  • loop segment
  • change instrument
  • show fretboard
  • metronome
×
Best way to learn
"Wilderness"
Autoscroll
slow
fast
+/-
esc
set tempo
stop
Contributor
-------------------------------------------------------------------------------
                             Wilderness - Joy Division
-------------------------------------------------------------------------------
Tabbed by: Gallagher2006
 
Tuning: Standard

Guitar comes in after the bass slides and the drums kick in

e|----------------------|
B|----------------------|
G|-7--x-3-3-x--5-5-5----|
D|-7--x-3-3-x--5-5-5----|
A|-5--x-1-1-x--3-3-3----|
E|----------------------|

Bass slides again and then you play this chord (Don’t let it ring)

e|---------|
B|---------|
G|--5--5---|
D|--5--5---|
A|--3--3---|
E|---------|

The verse riff is just the intro riff again


e|----------------------|
B|----------------------|
G|-7--x-3-3-x--5-5-5----|
D|-7--x-3-3-x--5-5-5----|
A|-5--x-1-1-x--3-3-3----|
E|----------------------|

Then the break again...

e|---------|
B|---------|
G|--5--5---|
D|--5--5---|
A|--3--3---|
E|---------|

This continues until the solo

e|---------------------------------------------------------------------------|
B|---------------------------------------------------------------------------|
G|--5h-7-x-7-x-7-7-x-7-7-5h7-x-7-x-7-x-7-7-Etc-------------------------------|
D|---------------------------------------------------------------------------|
A|---------------------------------------------------------------------------|
E|---------------------------------------------------------------------------|

Next part of solo repeated a few times...

e|---------------|
B|---------------|
G|---------------|
D|---------------|
A|--5------------|
E|-----6---3v----|

Pretty easy song =]
comments
We did not receive enough feedback on this tab! Please rate:
print report bad tab
1 2 3 4 5
2 comments total.
0 reply
ghostinside wrote on May 3 2013, 06:20 am

Next part of solo:
e|-------------------------------------|
B|-------------------------------------|
G|-------------------------------------|
D|-------------------------------------|
A|--5-----------5----------5-----------|
E|-----6---3-------6---3------6---8----| and so on...

0 reply
ghostinside wrote on May 3 2013, 07:02 am

And first part o solo:
e|---------------------------------------------------------------------------------------------------------|
B|---------------------------------------------------------------------------------------------------------|
G|--5--7-7-7--5-5--7-7-7--5-5-5--7-7-7--5-5--7-7-7--5-5-5--7-7-7--5-5--7-7-7--5-5-5--7-7-7--5-5--7-7-7\----|
D|---------------------------------------------------------------------------------------------------------|
A|---------------------------------------------------------------------------------------------------------|
E|---------------------------------------------------------------------------------------------------------|

I want to post or [tab]
guest
You may want to rate the tab now too:
select rating
Please do not post tabs as comments. Select "correction" instead!